  0
SECTION
  2
HEADER
  9
$ACADVER
  1
AC1014
  9
$ACADMAINTVER
 70
     9
  9
$DWGCODEPAGE
  3
ANSI_1252
  9
$INSBASE
 10
0.0
 20
0.0
 30
0.0
  9
$EXTMIN
 10
1.000000000000000E+20
 20
1.000000000000000E+20
 30
1.000000000000000E+20
  9
$EXTMAX
 10
-1.000000000000000E+20
 20
-1.000000000000000E+20
 30
-1.000000000000000E+20
  9
$LIMMIN
 10
0.0
 20
0.0
  9
$LIMMAX
 10
12.0
 20
9.0
  9
$ORTHOMODE
 70
     0
  9
$REGENMODE
 70
     1
  9
$FILLMODE
 70
     1
  9
$QTEXTMODE
 70
     0
  9
$MIRRTEXT
 70
     1
  9
$DRAGMODE
 70
     2
  9
$LTSCALE
 40
1.0
  9
$OSMODE
 70
    37
  9
$ATTMODE
 70
     1
  9
$TEXTSIZE
 40
0.2
  9
$TRACEWID
 40
0.05
  9
$TEXTSTYLE
  7
STANDARD
  9
$CLAYER
  8
PREDETERMINADO
  9
$CELTYPE
  6
BYLAYER
  9
$CECOLOR
 62
   256
  9
$CELTSCALE
 40
1.0
  9
$DELOBJ
 70
     1
  9
$DISPSILH
 70
     0
  9
$DIMSCALE
 40
1.0
  9
$DIMASZ
 40
0.18
  9
$DIMEXO
 40
0.0625
  9
$DIMDLI
 40
0.38
  9
$DIMRND
 40
0.0
  9
$DIMDLE
 40
0.0
  9
$DIMEXE
 40
0.18
  9
$DIMTP
 40
0.0
  9
$DIMTM
 40
0.0
  9
$DIMTXT
 40
0.18
  9
$DIMCEN
 40
0.09
  9
$DIMTSZ
 40
0.0
  9
$DIMTOL
 70
     0
  9
$DIMLIM
 70
     0
  9
$DIMTIH
 70
     1
  9
$DIMTOH
 70
     1
  9
$DIMSE1
 70
     0
  9
$DIMSE2
 70
     0
  9
$DIMTAD
 70
     0
  9
$DIMZIN
 70
     0
  9
$DIMBLK
  1

  9
$DIMASO
 70
     1
  9
$DIMSHO
 70
     1
  9
$DIMPOST
  1

  9
$DIMAPOST
  1

  9
$DIMALT
 70
     0
  9
$DIMALTD
 70
     2
  9
$DIMALTF
 40
25.4
  9
$DIMLFAC
 40
1.0
  9
$DIMTOFL
 70
     0
  9
$DIMTVP
 40
0.0
  9
$DIMTIX
 70
     0
  9
$DIMSOXD
 70
     0
  9
$DIMSAH
 70
     0
  9
$DIMBLK1
  1

  9
$DIMBLK2
  1

  9
$DIMSTYLE
  2
STANDARD_ACAD
  9
$DIMCLRD
 70
     0
  9
$DIMCLRE
 70
     0
  9
$DIMCLRT
 70
     0
  9
$DIMTFAC
 40
1.0
  9
$DIMGAP
 40
0.09
  9
$DIMJUST
 70
     0
  9
$DIMSD1
 70
     0
  9
$DIMSD2
 70
     0
  9
$DIMTOLJ
 70
     1
  9
$DIMTZIN
 70
     0
  9
$DIMALTZ
 70
     0
  9
$DIMALTTZ
 70
     0
  9
$DIMFIT
 70
     5
  9
$DIMUPT
 70
     0
  9
$DIMUNIT
 70
     2
  9
$DIMDEC
 70
     4
  9
$DIMTDEC
 70
     4
  9
$DIMALTU
 70
     2
  9
$DIMALTTD
 70
     2
  9
$DIMTXSTY
  7
STANDARD
  9
$DIMAUNIT
 70
     0
  9
$LUNITS
 70
     2
  9
$LUPREC
 70
     3
  9
$SKETCHINC
 40
0.1
  9
$FILLETRAD
 40
0.5
  9
$AUNITS
 70
     0
  9
$AUPREC
 70
     0
  9
$MENU
  1
.
  9
$ELEVATION
 40
0.0
  9
$PELEVATION
 40
0.0
  9
$THICKNESS
 40
0.0
  9
$LIMCHECK
 70
     0
  9
$CHAMFERA
 40
0.0
  9
$CHAMFERB
 40
0.0
  9
$CHAMFERC
 40
0.0
  9
$CHAMFERD
 40
0.0
  9
$SKPOLY
 70
     0
  9
$TDCREATE
 40
2459415.753868935
  9
$TDUPDATE
 40
2459415.753881922
  9
$TDINDWG
 40
0.0000000116
  9
$TDUSRTIMER
 40
0.0000000116
  9
$USRTIMER
 70
     1
  9
$ANGBASE
 50
0.0
  9
$ANGDIR
 70
     0
  9
$PDMODE
 70
     0
  9
$PDSIZE
 40
0.0
  9
$PLINEWID
 40
0.0
  9
$COORDS
 70
     1
  9
$SPLFRAME
 70
     0
  9
$SPLINETYPE
 70
     6
  9
$SPLINESEGS
 70
     8
  9
$ATTDIA
 70
     0
  9
$ATTREQ
 70
     1
  9
$HANDLING
 70
     1
  9
$HANDSEED
  5
2D4
  9
$SURFTAB1
 70
     6
  9
$SURFTAB2
 70
     6
  9
$SURFTYPE
 70
     6
  9
$SURFU
 70
     6
  9
$SURFV
 70
     6
  9
$UCSNAME
  2

  9
$UCSORG
 10
0.0
 20
0.0
 30
0.0
  9
$UCSXDIR
 10
1.0
 20
0.0
 30
0.0
  9
$UCSYDIR
 10
0.0
 20
1.0
 30
0.0
  9
$PUCSNAME
  2

  9
$PUCSORG
 10
0.0
 20
0.0
 30
0.0
  9
$PUCSXDIR
 10
1.0
 20
0.0
 30
0.0
  9
$PUCSYDIR
 10
0.0
 20
1.0
 30
0.0
  9
$USERI1
 70
     0
  9
$USERI2
 70
     0
  9
$USERI3
 70
     0
  9
$USERI4
 70
     0
  9
$USERI5
 70
     0
  9
$USERR1
 40
0.0
  9
$USERR2
 40
0.0
  9
$USERR3
 40
0.0
  9
$USERR4
 40
0.0
  9
$USERR5
 40
0.0
  9
$WORLDVIEW
 70
     1
  9
$SHADEDGE
 70
     3
  9
$SHADEDIF
 70
    70
  9
$TILEMODE
 70
     1
  9
$MAXACTVP
 70
    64
  9
$PINSBASE
 10
0.0
 20
0.0
 30
0.0
  9
$PLIMCHECK
 70
     0
  9
$PEXTMIN
 10
1.000000000000000E+20
 20
1.000000000000000E+20
 30
1.000000000000000E+20
  9
$PEXTMAX
 10
-1.000000000000000E+20
 20
-1.000000000000000E+20
 30
-1.000000000000000E+20
  9
$PLIMMIN
 10
0.0
 20
0.0
  9
$PLIMMAX
 10
12.0
 20
9.0
  9
$UNITMODE
 70
     0
  9
$VISRETAIN
 70
     1
  9
$PLINEGEN
 70
     0
  9
$PSLTSCALE
 70
     1
  9
$TREEDEPTH
 70
  3020
  9
$PICKSTYLE
 70
     1
  9
$CMLSTYLE
  2
STANDARD
  9
$CMLJUST
 70
     0
  9
$CMLSCALE
 40
1.0
  9
$PROXYGRAPHICS
 70
     1
  9
$MEASUREMENT
 70
     1
  0
ENDSEC
  0
SECTION
  2
CLASSES
  0
CLASS
  1
ACDBDICTIONARYWDFLT
  2
AcDbDictionaryWithDefault
  3
ObjectDBX Classes
 90
        0
280
     0
281
     0
  0
CLASS
  1
VISUALSTYLE
  2
AcDbVisualStyle
  3
ObjectDBX Classes
 90
     4095
280
     0
281
     0
  0
CLASS
  1
MATERIAL
  2
AcDbMaterial
  3
ObjectDBX Classes
 90
     1153
280
     0
281
     0
  0
CLASS
  1
SCALE
  2
AcDbScale
  3
ObjectDBX Classes
 90
     1153
280
     0
281
     0
  0
CLASS
  1
TABLESTYLE
  2
AcDbTableStyle
  3
ObjectDBX Classes
 90
     4095
280
     0
281
     0
  0
CLASS
  1
MLEADERSTYLE
  2
AcDbMLeaderStyle
  3
ACDB_MLEADERSTYLE_CLASS
 90
     4095
280
     0
281
     0
  0
CLASS
  1
SUN
  2
AcDbSun
  3
SCENEOE
 90
     1153
280
     0
281
     0
  0
CLASS
  1
DICTIONARYVAR
  2
AcDbDictionaryVar
  3
ObjectDBX Classes
 90
        0
280
     0
281
     0
  0
CLASS
  1
XRECORD
  2
AcDbXrecord
  3
ObjectDBX Classes
 90
        0
280
     0
281
     0
  0
CLASS
  1
LWPOLYLINE
  2
AcDbPolyline
  3
ObjectDBX Classes
 90
        0
280
     0
281
     1
  0
CLASS
  1
HATCH
  2
AcDbHatch
  3
ObjectDBX Classes
 90
        0
280
     0
281
     1
  0
CLASS
  1
ACDBPLACEHOLDER
  2
AcDbPlaceHolder
  3
ObjectDBX Classes
 90
        0
280
     0
281
     0
  0
CLASS
  1
LAYOUT
  2
AcDbLayout
  3
ObjectDBX Classes
 90
        0
280
     0
281
     0
  0
ENDSEC
  0
SECTION
  2
TABLES
  0
TABLE
  2
VPORT
  5
8
102
{ACAD_XDICTIONARY
360
2C9
102
}
330
0
100
AcDbSymbolTable
 70
     1
  0
VPORT
  5
29
330
8
100
AcDbSymbolTableRecord
100
AcDbViewportTableRecord
  2
*ACTIVE
 70
     0
 10
0.0
 20
0.0
 11
1.0
 21
1.0
 12
10.42990654205607
 22
4.5
 13
0.0
 23
0.0
 14
0.5
 24
0.5
 15
0.5
 25
0.5
 16
0.0
 26
0.0
 36
1.0
 17
0.0
 27
0.0
 37
0.0
 40
9.0
 41
1.972972972850329
 42
50.0
 43
0.0
 44
0.0
 50
0.0
 51
0.0
 71
     0
 72
   100
 73
     1
 74
     3
 75
     0
 76
     0
 77
     0
 78
     0
  0
ENDTAB
  0
TABLE
  2
LTYPE
  5
5
330
0
100
AcDbSymbolTable
 70
     1
  0
LTYPE
  5
14
330
5
100
AcDbSymbolTableRecord
100
AcDbLinetypeTableRecord
  2
BYBLOCK
 70
     0
  3

 72
    65
 73
     0
 40
0.0
  0
LTYPE
  5
15
330
5
100
AcDbSymbolTableRecord
100
AcDbLinetypeTableRecord
  2
BYLAYER
 70
     0
  3

 72
    65
 73
     0
 40
0.0
  0
LTYPE
  5
16
330
5
100
AcDbSymbolTableRecord
100
AcDbLinetypeTableRecord
  2
CONTINUOUS
 70
     0
  3
Solid line
 72
    65
 73
     0
 40
0.0
  0
ENDTAB
  0
TABLE
  2
LAYER
  5
2
330
0
100
AcDbSymbolTable
 70
     6
  0
LAYER
  5
10
330
2
100
AcDbSymbolTableRecord
100
AcDbLayerTableRecord
  2
0
 70
     0
 62
     7
  6
CONTINUOUS
  0
LAYER
  5
6E
330
2
100
AcDbSymbolTableRecord
100
AcDbLayerTableRecord
  2
PREDETERMINADO
 70
     0
 62
    18
  6
CONTINUOUS
  0
LAYER
  5
75
330
2
100
AcDbSymbolTableRecord
100
AcDbLayerTableRecord
  2
CAPA_03
 70
     0
 62
     5
  6
CONTINUOUS
  0
LAYER
  5
7B
330
2
100
AcDbSymbolTableRecord
100
AcDbLayerTableRecord
  2
PREDETERMINADA
 70
     0
 62
    18
  6
CONTINUOUS
  0
LAYER
  5
88
330
2
100
AcDbSymbolTableRecord
100
AcDbLayerTableRecord
  2
CAPA_01
 70
     0
 62
     1
  6
CONTINUOUS
  0
LAYER
  5
151
330
2
100
AcDbSymbolTableRecord
100
AcDbLayerTableRecord
  2
CAPA_02
 70
     0
 62
     3
  6
CONTINUOUS
  0
ENDTAB
  0
TABLE
  2
STYLE
  5
3
330
0
100
AcDbSymbolTable
 70
     1
  0
STYLE
  5
11
330
3
100
AcDbSymbolTableRecord
100
AcDbTextStyleTableRecord
  2
STANDARD
 70
     0
 40
0.0
 41
1.0
 50
0.0
 71
     0
 42
0.2
  3
txt
  4

  0
ENDTAB
  0
TABLE
  2
VIEW
  5
6
330
0
100
AcDbSymbolTable
 70
     0
  0
ENDTAB
  0
TABLE
  2
UCS
  5
7
330
0
100
AcDbSymbolTable
 70
     0
  0
ENDTAB
  0
TABLE
  2
APPID
  5
9
330
0
100
AcDbSymbolTable
 70
     2
  0
APPID
  5
12
330
9
100
AcDbSymbolTableRecord
100
AcDbRegAppTableRecord
  2
ACAD
 70
     0
  0
APPID
  5
2D3
330
9
100
AcDbSymbolTableRecord
100
AcDbRegAppTableRecord
  2
ACAD_MLEADERVER
 70
     0
  0
ENDTAB
  0
TABLE
  2
DIMSTYLE
  5
A
330
0
100
AcDbSymbolTable
 70
     1
  0
DIMSTYLE
105
27
330
A
100
AcDbSymbolTableRecord
100
AcDbDimStyleTableRecord
  2
STANDARD_ACAD
 70
     0
  3

  4

  5

  6

  7

 40
1.0
 41
0.18
 42
0.0625
 43
0.38
 44
0.18
 45
0.0
 46
0.0
 47
0.0
 48
0.0
140
0.18
141
0.09
142
0.0
143
25.4
144
1.0
145
0.0
146
1.0
147
0.09
 71
     0
 72
     0
 73
     1
 74
     1
 75
     0
 76
     0
 77
     0
 78
     0
170
     0
171
     2
172
     0
173
     0
174
     0
175
     0
176
     0
177
     0
178
     0
270
     2
271
     4
272
     4
273
     2
274
     2
340
11
275
     0
280
     0
281
     0
282
     0
283
     1
284
     0
285
     0
286
     0
287
     3
288
     0
  0
ENDTAB
  0
TABLE
  2
BLOCK_RECORD
  5
1
330
0
100
AcDbSymbolTable
 70
     0
  0
BLOCK_RECORD
  5
1F
330
1
100
AcDbSymbolTableRecord
100
AcDbBlockTableRecord
  2
*MODEL_SPACE
  0
BLOCK_RECORD
  5
1B
330
1
100
AcDbSymbolTableRecord
100
AcDbBlockTableRecord
  2
*PAPER_SPACE
  0
ENDTAB
  0
ENDSEC
  0
SECTION
  2
BLOCKS
  0
BLOCK
  5
20
330
1F
100
AcDbEntity
  8
0
100
AcDbBlockBegin
  2
*MODEL_SPACE
 70
     0
 10
0.0
 20
0.0
 30
0.0
  3
*MODEL_SPACE
  1

  0
ENDBLK
  5
21
330
1F
100
AcDbEntity
  8
0
100
AcDbBlockEnd
  0
BLOCK
  5
1C
330
1B
100
AcDbEntity
 67
     1
  8
0
100
AcDbBlockBegin
  2
*PAPER_SPACE
 70
     0
 10
0.0
 20
0.0
 30
0.0
  3
*PAPER_SPACE
  1

  0
ENDBLK
  5
1D
330
1B
100
AcDbEntity
 67
     1
  8
0
100
AcDbBlockEnd
  0
ENDSEC
  0
SECTION
  2
ENTITIES
  0
POLYLINE
  5
6F
330
1F
100
AcDbEntity
  8
PREDETERMINADO
100
AcDb2dPolyline
 66
     1
 10
0.0
 20
0.0
 30
0.0
 70
     1
  0
VERTEX
  5
70
330
6F
100
AcDbEntity
  8
PREDETERMINADO
100
AcDbVertex
100
AcDb2dVertex
 10
0.0
 20
345.0
 30
0.0
  0
VERTEX
  5
71
330
6F
100
AcDbEntity
  8
PREDETERMINADO
100
AcDbVertex
100
AcDb2dVertex
 10
0.0
 20
0.0
 30
0.0
  0
VERTEX
  5
72
330
6F
100
AcDbEntity
  8
PREDETERMINADO
100
AcDbVertex
100
AcDb2dVertex
 10
360.0
 20
0.0
 30
0.0
  0
VERTEX
  5
73
330
6F
100
AcDbEntity
  8
PREDETERMINADO
100
AcDbVertex
100
AcDb2dVertex
 10
360.0
 20
345.0
 30
0.0
  0
SEQEND
  5
74
330
6F
100
AcDbEntity
  8
PREDETERMINADO
  0
LINE
  5
76
330
1F
100
AcDbEntity
  8
CAPA_03
100
AcDbLine
 10
180.4614933879624
 20
219.925987791424
 30
0.0
 11
180.4614933879624
 21
258.9884877914238
 31
0.0
  0
CIRCLE
  5
77
330
1F
100
AcDbEntity
  8
PREDETERMINADO
100
AcDbCircle
 10
292.2121205623249
 20
266.880543824953
 30
0.0
 40
5.0
  0
CIRCLE
  5
78
330
1F
100
AcDbEntity
  8
PREDETERMINADO
100
AcDbCircle
 10
335.9109865669978
 20
266.880543824953
 30
0.0
 40
5.0
  0
CIRCLE
  5
79
330
1F
100
AcDbEntity
  8
PREDETERMINADO
100
AcDbCircle
 10
270.5473268461849
 20
85.59042152225112
 30
0.0
 40
5.0
  0
CIRCLE
  5
7A
330
1F
100
AcDbEntity
  8
PREDETERMINADO
100
AcDbCircle
 10
314.3810024467631
 20
85.59042152225112
 30
0.0
 40
5.0
  0
ARC
  5
7C
330
1F
100
AcDbEntity
  8
PREDETERMINADA
100
AcDbCircle
 10
-524.508489591243
 20
175.517064846625
 30
0.0
 40
268.166666666655
210
0.0
220
0.0
230
-1.0
100
AcDbArc
 50
4.289153328822188
 51
8.578306657641308
  0
ARC
  5
7D
330
1F
100
AcDbEntity
  8
PREDETERMINADA
100
AcDbCircle
 10
253.408945360884
 20
216.4120306639024
 30
0.0
 40
5.99999999999999
100
AcDbArc
 50
351.4216933423653
 51
171.421693342362
  0
ARC
  5
7E
330
1F
100
AcDbEntity
  8
PREDETERMINADA
100
AcDbCircle
 10
524.5084895912505
 20
175.517064846624
 30
0.0
 40
280.1666666666624
100
AcDbArc
 50
171.4216933423617
 51
179.9999999999999
  0
LINE
  5
7F
330
1F
100
AcDbEntity
  8
PREDETERMINADA
100
AcDbLine
 10
244.3418229245881
 20
175.5170648466246
 30
0.0
 11
244.3418229245881
 21
55.51706484662418
 31
0.0
  0
ARC
  5
80
330
1F
100
AcDbEntity
  8
PREDETERMINADA
100
AcDbCircle
 10
524.5084895912522
 20
55.51706484662489
 30
0.0
 40
280.1666666666641
100
AcDbArc
 50
180.0000000000001
 51
188.5783066576383
  0
ARC
  5
81
330
1F
100
AcDbEntity
  8
PREDETERMINADA
100
AcDbCircle
 10
253.408945360884
 20
14.62209902934626
 30
0.0
 40
6.000000000000012
100
AcDbArc
 50
188.5783066576382
 51
8.5783066576405
  0
ARC
  5
82
330
1F
100
AcDbEntity
  8
PREDETERMINADA
100
AcDbCircle
 10
-524.508489591308
 20
55.5170648466318
 30
0.0
 40
268.1666666667203
210
0.0
220
0.0
230
-1.0
100
AcDbArc
 50
351.4216933423619
 51
355.7108466711799
  0
ARC
  5
83
330
1F
100
AcDbEntity
  8
PREDETERMINADA
100
AcDbCircle
 10
-400.7878040355349
 20
43.70690353463021
 30
0.0
 40
143.9313357372098
210
0.0
220
0.0
230
-1.0
100
AcDbArc
 50
356.715653340971
 51
4.706647310302467
  0
LINE
  5
84
330
1F
100
AcDbEntity
  8
PREDETERMINADA
100
AcDbLine
 10
257.3418229245881
 20
55.51706484662373
 30
0.0
 11
256.3418229245881
 21
55.51706484662407
 31
0.0
  0
LINE
  5
85
330
1F
100
AcDbEntity
  8
PREDETERMINADA
100
AcDbLine
 10
256.3418229245881
 20
55.51706484662407
 30
0.0
 11
256.3418229245881
 21
175.5170648466249
 31
0.0
  0
LINE
  5
86
330
1F
100
AcDbEntity
  8
PREDETERMINADA
100
AcDbLine
 10
256.3418229245881
 20
175.5170648466249
 30
0.0
 11
257.3418229245881
 21
175.5170648466253
 31
0.0
  0
ARC
  5
87
330
1F
100
AcDbEntity
  8
PREDETERMINADA
100
AcDbCircle
 10
-400.7878040355396
 20
187.3272261586193
 30
0.0
 40
143.9313357372147
210
0.0
220
0.0
230
-1.0
100
AcDbArc
 50
355.2933526896975
 51
3.284346659028802
  0
LINE
  5
89
330
1F
100
AcDbEntity
  8
CAPA_01
100
AcDbLine
 10
242.3418229245881
 20
55.51706484662418
 30
0.0
 11
242.3418229245881
 21
175.5170648466246
 31
0.0
  0
POLYLINE
  5
8A
330
1F
100
AcDbEntity
  8
CAPA_01
100
AcDb2dPolyline
 66
     1
 10
0.0
 20
0.0
 30
0.0
  0
VERTEX
  5
8B
330
8A
100
AcDbEntity
  8
CAPA_01
100
AcDbVertex
100
AcDb2dVertex
 10
242.3418229245881
 20
175.5170648466246
 30
0.0
 42
-0.0374474134210527
  0
VERTEX
  5
8C
330
8A
100
AcDbEntity
  8
CAPA_01
100
AcDbVertex
100
AcDb2dVertex
 10
245.4984419426119
 20
217.6053184202728
 30
0.0
 42
-0.9999999999999815
  0
VERTEX
  5
8D
330
8A
100
AcDbEntity
  8
CAPA_01
100
AcDbVertex
100
AcDb2dVertex
 10
261.3194487791562
 20
215.2187429075323
 30
0.0
 42
0.0187006422082463
  0
VERTEX
  5
8E
330
8A
100
AcDbEntity
  8
CAPA_01
100
AcDbVertex
100
AcDb2dVertex
 10
259.0885876269721
 20
195.4411730001926
 30
0.0
  0
SEQEND
  5
8F
330
8A
100
AcDbEntity
  8
CAPA_01
  0
ARC
  5
90
330
1F
100
AcDbEntity
  8
CAPA_01
100
AcDbCircle
 10
400.7878040355424
 20
187.3272261586192
 30
0.0
 40
141.9313357372173
100
AcDbArc
 50
176.7227215351503
 51
184.7066473103028
  0
POLYLINE
  5
91
330
1F
100
AcDbEntity
  8
CAPA_01
100
AcDb2dPolyline
 66
     1
 10
0.0
 20
0.0
 30
0.0
  0
VERTEX
  5
92
330
91
100
AcDbEntity
  8
CAPA_01
100
AcDbVertex
100
AcDb2dVertex
 10
259.3350786722156
 20
175.6811731174407
 30
0.0
  0
VERTEX
  5
93
330
91
100
AcDbEntity
  8
CAPA_01
100
AcDbVertex
100
AcDb2dVertex
 10
259.5132535334212
 20
173.5170648466261
 30
0.0
  0
VERTEX
  5
94
330
91
100
AcDbEntity
  8
CAPA_01
100
AcDbVertex
100
AcDb2dVertex
 10
258.3418229245882
 20
173.5170648466256
 30
0.0
  0
SEQEND
  5
95
330
91
100
AcDbEntity
  8
CAPA_01
  0
LINE
  5
96
330
1F
100
AcDbEntity
  8
CAPA_01
100
AcDbLine
 10
258.3418229245882
 20
173.5170648466256
 30
0.0
 11
258.3418229245881
 21
57.51706484662327
 31
0.0
  0
POLYLINE
  5
97
330
1F
100
AcDbEntity
  8
CAPA_01
100
AcDb2dPolyline
 66
     1
 10
0.0
 20
0.0
 30
0.0
  0
VERTEX
  5
98
330
97
100
AcDbEntity
  8
CAPA_01
100
AcDbVertex
100
AcDb2dVertex
 10
258.3418229245881
 20
57.51706484662327
 30
0.0
  0
VERTEX
  5
99
330
97
100
AcDbEntity
  8
CAPA_01
100
AcDbVertex
100
AcDb2dVertex
 10
259.5132535334214
 20
57.51706484662276
 30
0.0
  0
VERTEX
  5
9A
330
97
100
AcDbEntity
  8
CAPA_01
100
AcDbVertex
100
AcDb2dVertex
 10
259.3350786722156
 20
55.35295657580735
 30
0.0
  0
SEQEND
  5
9B
330
97
100
AcDbEntity
  8
CAPA_01
  0
ARC
  5
9C
330
1F
100
AcDbEntity
  8
CAPA_01
100
AcDbCircle
 10
400.7878040355495
 20
43.70690353463025
 30
0.0
 40
141.9313357372243
100
AcDbArc
 50
175.293352689698
 51
183.2772784648507
  0
POLYLINE
  5
9D
330
1F
100
AcDbEntity
  8
CAPA_01
100
AcDb2dPolyline
 66
     1
 10
0.0
 20
0.0
 30
0.0
  0
VERTEX
  5
9E
330
9D
100
AcDbEntity
  8
CAPA_01
100
AcDbVertex
100
AcDb2dVertex
 10
259.0885876269724
 20
35.59295669305391
 30
0.0
 42
0.0187006422082404
  0
VERTEX
  5
9F
330
9D
100
AcDbEntity
  8
CAPA_01
100
AcDbVertex
100
AcDb2dVertex
 10
261.3194487791565
 20
15.81538678571675
 30
0.0
 42
-1.000000000000008
  0
VERTEX
  5
A0
330
9D
100
AcDbEntity
  8
CAPA_01
100
AcDbVertex
100
AcDb2dVertex
 10
245.498441942612
 20
13.42881127297592
 30
0.0
 42
-0.0374474134210547
  0
VERTEX
  5
A1
330
9D
100
AcDbEntity
  8
CAPA_01
100
AcDbVertex
100
AcDb2dVertex
 10
242.3418229245882
 20
55.51706484662421
 30
0.0
  0
SEQEND
  5
A2
330
9D
100
AcDbEntity
  8
CAPA_01
  0
LINE
  5
A3
330
1F
100
AcDbEntity
  8
CAPA_01
100
AcDbLine
 10
279.8561147510878
 20
171.5170648466275
 30
0.0
 11
279.8561147510878
 21
291.5170648466279
 31
0.0
  0
POLYLINE
  5
A4
330
1F
100
AcDbEntity
  8
CAPA_01
100
AcDb2dPolyline
 66
     1
 10
0.0
 20
0.0
 30
0.0
  0
VERTEX
  5
A5
330
A4
100
AcDbEntity
  8
CAPA_01
100
AcDbVertex
100
AcDb2dVertex
 10
279.8561147510878
 20
291.5170648466279
 30
0.0
 42
0.0374474134210483
  0
VERTEX
  5
A6
330
A4
100
AcDbEntity
  8
CAPA_01
100
AcDbVertex
100
AcDb2dVertex
 10
276.6994957330642
 20
333.6053184202761
 30
0.0
 42
0.999999999999983
  0
VERTEX
  5
A7
330
A4
100
AcDbEntity
  8
CAPA_01
100
AcDbVertex
100
AcDb2dVertex
 10
260.8784888965197
 20
331.2187429075357
 30
0.0
 42
-0.0187006422082401
  0
VERTEX
  5
A8
330
A4
100
AcDbEntity
  8
CAPA_01
100
AcDbVertex
100
AcDb2dVertex
 10
263.1093500487038
 20
311.441173000196
 30
0.0
  0
SEQEND
  5
A9
330
A4
100
AcDbEntity
  8
CAPA_01
  0
ARC
  5
AA
330
1F
100
AcDbEntity
  8
CAPA_01
100
AcDbCircle
 10
-121.4101336401569
 20
303.3272261586222
 30
0.0
 40
141.9313357371941
210
0.0
220
0.0
230
-1.0
100
AcDbArc
 50
176.7227215351496
 51
184.7066473103034
  0
POLYLINE
  5
AB
330
1F
100
AcDbEntity
  8
CAPA_01
100
AcDb2dPolyline
 66
     1
 10
0.0
 20
0.0
 30
0.0
  0
VERTEX
  5
AC
330
AB
100
AcDbEntity
  8
CAPA_01
100
AcDbVertex
100
AcDb2dVertex
 10
262.8628590034605
 20
291.681173117444
 30
0.0
  0
VERTEX
  5
AD
330
AB
100
AcDbEntity
  8
CAPA_01
100
AcDbVertex
100
AcDb2dVertex
 10
262.6846841422548
 20
289.5170648466294
 30
0.0
  0
VERTEX
  5
AE
330
AB
100
AcDbEntity
  8
CAPA_01
100
AcDbVertex
100
AcDb2dVertex
 10
263.8561147510878
 20
289.517064846629
 30
0.0
  0
SEQEND
  5
AF
330
AB
100
AcDbEntity
  8
CAPA_01
  0
LINE
  5
B0
330
1F
100
AcDbEntity
  8
CAPA_01
100
AcDbLine
 10
263.8561147510878
 20
289.517064846629
 30
0.0
 11
263.8561147510879
 21
173.5170648466266
 31
0.0
  0
POLYLINE
  5
B1
330
1F
100
AcDbEntity
  8
CAPA_01
100
AcDb2dPolyline
 66
     1
 10
0.0
 20
0.0
 30
0.0
  0
VERTEX
  5
B2
330
B1
100
AcDbEntity
  8
CAPA_01
100
AcDbVertex
100
AcDb2dVertex
 10
263.8561147510879
 20
173.5170648466266
 30
0.0
  0
VERTEX
  5
B3
330
B1
100
AcDbEntity
  8
CAPA_01
100
AcDbVertex
100
AcDb2dVertex
 10
262.6846841422546
 20
173.5170648466261
 30
0.0
  0
VERTEX
  5
B4
330
B1
100
AcDbEntity
  8
CAPA_01
100
AcDbVertex
100
AcDb2dVertex
 10
262.8628590034605
 20
171.3529565758107
 30
0.0
  0
SEQEND
  5
B5
330
B1
100
AcDbEntity
  8
CAPA_01
  0
ARC
  5
B6
330
1F
100
AcDbEntity
  8
CAPA_01
100
AcDbCircle
 10
-121.4101336401261
 20
159.7069035346335
 30
0.0
 40
141.9313357372247
210
0.0
220
0.0
230
-1.0
100
AcDbArc
 50
175.293352689698
 51
183.2772784648507
  0
POLYLINE
  5
B7
330
1F
100
AcDbEntity
  8
CAPA_01
100
AcDb2dPolyline
 66
     1
 10
0.0
 20
0.0
 30
0.0
  0
VERTEX
  5
B8
330
B7
100
AcDbEntity
  8
CAPA_01
100
AcDbVertex
100
AcDb2dVertex
 10
263.1093500487036
 20
151.5929566930572
 30
0.0
 42
-0.0187006422082374
  0
VERTEX
  5
B9
330
B7
100
AcDbEntity
  8
CAPA_01
100
AcDbVertex
100
AcDb2dVertex
 10
260.8784888965197
 20
131.81538678572
 30
0.0
 42
1.000000000000004
  0
VERTEX
  5
BA
330
B7
100
AcDbEntity
  8
CAPA_01
100
AcDbVertex
100
AcDb2dVertex
 10
276.6994957330643
 20
129.4288112729792
 30
0.0
 42
0.0374474134210525
  0
VERTEX
  5
BB
330
B7
100
AcDbEntity
  8
CAPA_01
100
AcDbVertex
100
AcDb2dVertex
 10
279.8561147510878
 20
171.5170648466275
 30
0.0
  0
SEQEND
  5
BC
330
B7
100
AcDbEntity
  8
CAPA_01
  0
ARC
  5
BD
330
1F
100
AcDbEntity
  8
PREDETERMINADA
100
AcDbCircle
 10
-2.310551915567089
 20
291.5170648466283
 30
0.0
 40
268.166666666655
100
AcDbArc
 50
4.289153328825453
 51
8.578306657644578
  0
ARC
  5
BE
330
1F
100
AcDbEntity
  8
PREDETERMINADA
100
AcDbCircle
 10
-268.7889923147919
 20
332.4120306639057
 30
0.0
 40
5.99999999999999
210
0.0
220
0.0
230
-1.0
100
AcDbArc
 50
351.4216933423653
 51
171.421693342362
  0
ARC
  5
BF
330
1F
100
AcDbEntity
  8
PREDETERMINADA
100
AcDbCircle
 10
2.310551915596639
 20
291.5170648466257
 30
0.0
 40
280.1666666666845
210
0.0
220
0.0
230
-1.0
100
AcDbArc
 50
171.4216933423621
 51
179.9999999999995
  0
LINE
  5
C0
330
1F
100
AcDbEntity
  8
PREDETERMINADA
100
AcDbLine
 10
277.8561147510878
 20
291.5170648466279
 30
0.0
 11
277.8561147510878
 21
171.5170648466275
 31
0.0
  0
ARC
  5
C1
330
1F
100
AcDbEntity
  8
PREDETERMINADA
100
AcDbCircle
 10
2.310551915596253
 20
171.5170648466297
 30
0.0
 40
280.1666666666841
210
0.0
220
0.0
230
-1.0
100
AcDbArc
 50
180.0000000000004
 51
188.5783066576379
  0
ARC
  5
C2
330
1F
100
AcDbEntity
  8
PREDETERMINADA
100
AcDbCircle
 10
-268.7889923147919
 20
130.6220990293496
 30
0.0
 40
6.000000000000012
210
0.0
220
0.0
230
-1.0
100
AcDbArc
 50
188.578306657638
 51
8.578306657640235
  0
ARC
  5
C3
330
1F
100
AcDbEntity
  8
PREDETERMINADA
100
AcDbCircle
 10
-2.310551915632004
 20
171.5170648466351
 30
0.0
 40
268.1666666667203
100
AcDbArc
 50
351.421693342362
 51
355.7108466711799
  0
ARC
  5
C4
330
1F
100
AcDbEntity
  8
PREDETERMINADA
100
AcDbCircle
 10
121.4101336401411
 20
159.7069035346335
 30
0.0
 40
143.9313357372098
100
AcDbArc
 50
356.715653340971
 51
4.706647310302461
  0
LINE
  5
C5
330
1F
100
AcDbEntity
  8
PREDETERMINADA
100
AcDbLine
 10
264.8561147510879
 20
171.517064846627
 30
0.0
 11
265.8561147510879
 21
171.5170648466274
 31
0.0
  0
LINE
  5
C6
330
1F
100
AcDbEntity
  8
PREDETERMINADA
100
AcDbLine
 10
265.8561147510879
 20
171.5170648466274
 30
0.0
 11
265.8561147510879
 21
291.5170648466283
 31
0.0
  0
LINE
  5
C7
330
1F
100
AcDbEntity
  8
PREDETERMINADA
100
AcDbLine
 10
265.8561147510879
 20
291.5170648466283
 30
0.0
 11
264.8561147510879
 21
291.5170648466286
 31
0.0
  0
ARC
  5
C8
330
1F
100
AcDbEntity
  8
PREDETERMINADA
100
AcDbCircle
 10
121.4101336401363
 20
303.3272261586227
 30
0.0
 40
143.9313357372147
100
AcDbArc
 50
355.2933526896975
 51
3.284346659028802
  0
ARC
  5
C9
330
1F
100
AcDbEntity
  8
PREDETERMINADA
100
AcDbCircle
 10
-566.5583723959987
 20
175.517064846625
 30
0.0
 40
268.166666666655
210
0.0
220
0.0
230
-1.0
100
AcDbArc
 50
4.289153328822188
 51
8.578306657641308
  0
ARC
  5
CA
330
1F
100
AcDbEntity
  8
PREDETERMINADA
100
AcDbCircle
 10
295.4588281656397
 20
216.4120306639024
 30
0.0
 40
5.99999999999999
100
AcDbArc
 50
351.4216933423653
 51
171.421693342362
  0
ARC
  5
CB
330
1F
100
AcDbEntity
  8
PREDETERMINADA
100
AcDbCircle
 10
566.5583723960063
 20
175.517064846624
 30
0.0
 40
280.1666666666625
100
AcDbArc
 50
171.4216933423617
 51
179.9999999999999
  0
LINE
  5
CC
330
1F
100
AcDbEntity
  8
PREDETERMINADA
100
AcDbLine
 10
286.3917057293438
 20
175.5170648466246
 30
0.0
 11
286.3917057293438
 21
55.51706484662418
 31
0.0
  0
ARC
  5
CD
330
1F
100
AcDbEntity
  8
PREDETERMINADA
100
AcDbCircle
 10
566.5583723960079
 20
55.51706484662489
 30
0.0
 40
280.1666666666641
100
AcDbArc
 50
180.0000000000001
 51
188.5783066576383
  0
ARC
  5
CE
330
1F
100
AcDbEntity
  8
PREDETERMINADA
100
AcDbCircle
 10
295.4588281656397
 20
14.62209902934626
 30
0.0
 40
6.000000000000012
100
AcDbArc
 50
188.5783066576383
 51
8.578306657640603
  0
ARC
  5
CF
330
1F
100
AcDbEntity
  8
PREDETERMINADA
100
AcDbCircle
 10
-566.5583723960636
 20
55.5170648466318
 30
0.0
 40
268.1666666667203
210
0.0
220
0.0
230
-1.0
100
AcDbArc
 50
351.4216933423619
 51
355.7108466711799
  0
ARC
  5
D0
330
1F
100
AcDbEntity
  8
PREDETERMINADA
100
AcDbCircle
 10
-442.8376868402905
 20
43.70690353463021
 30
0.0
 40
143.9313357372098
210
0.0
220
0.0
230
-1.0
100
AcDbArc
 50
356.715653340971
 51
4.706647310302467
  0
LINE
  5
D1
330
1F
100
AcDbEntity
  8
PREDETERMINADA
100
AcDbLine
 10
299.3917057293437
 20
55.51706484662373
 30
0.0
 11
298.3917057293437
 21
55.51706484662407
 31
0.0
  0
LINE
  5
D2
330
1F
100
AcDbEntity
  8
PREDETERMINADA
100
AcDbLine
 10
298.3917057293437
 20
55.51706484662407
 30
0.0
 11
298.3917057293437
 21
175.5170648466249
 31
0.0
  0
LINE
  5
D3
330
1F
100
AcDbEntity
  8
PREDETERMINADA
100
AcDbLine
 10
298.3917057293437
 20
175.5170648466249
 30
0.0
 11
299.3917057293437
 21
175.5170648466253
 31
0.0
  0
ARC
  5
D4
330
1F
100
AcDbEntity
  8
PREDETERMINADA
100
AcDbCircle
 10
-442.8376868402953
 20
187.3272261586193
 30
0.0
 40
143.9313357372147
210
0.0
220
0.0
230
-1.0
100
AcDbArc
 50
355.2933526896975
 51
3.284346659028802
  0
LINE
  5
D5
330
1F
100
AcDbEntity
  8
CAPA_01
100
AcDbLine
 10
284.3917057293438
 20
55.51706484662418
 30
0.0
 11
284.3917057293438
 21
175.5170648466246
 31
0.0
  0
POLYLINE
  5
D6
330
1F
100
AcDbEntity
  8
CAPA_01
100
AcDb2dPolyline
 66
     1
 10
0.0
 20
0.0
 30
0.0
  0
VERTEX
  5
D7
330
D6
100
AcDbEntity
  8
CAPA_01
100
AcDbVertex
100
AcDb2dVertex
 10
284.3917057293438
 20
175.5170648466246
 30
0.0
 42
-0.0374474134210554
  0
VERTEX
  5
D8
330
D6
100
AcDbEntity
  8
CAPA_01
100
AcDbVertex
100
AcDb2dVertex
 10
287.5483247473675
 20
217.6053184202728
 30
0.0
 42
-0.9999999999999875
  0
VERTEX
  5
D9
330
D6
100
AcDbEntity
  8
CAPA_01
100
AcDbVertex
100
AcDb2dVertex
 10
303.3693315839117
 20
215.2187429075323
 30
0.0
 42
0.0187006422082384
  0
VERTEX
  5
DA
330
D6
100
AcDbEntity
  8
CAPA_01
100
AcDbVertex
100
AcDb2dVertex
 10
301.1384704317277
 20
195.4411730001927
 30
0.0
  0
SEQEND
  5
DB
330
D6
100
AcDbEntity
  8
CAPA_01
  0
ARC
  5
DC
330
1F
100
AcDbEntity
  8
CAPA_01
100
AcDbCircle
 10
442.8376868402979
 20
187.3272261586183
 30
0.0
 40
141.9313357372172
100
AcDbArc
 50
176.72272153515
 51
184.7066473103025
  0
POLYLINE
  5
DD
330
1F
100
AcDbEntity
  8
CAPA_01
100
AcDb2dPolyline
 66
     1
 10
0.0
 20
0.0
 30
0.0
  0
VERTEX
  5
DE
330
DD
100
AcDbEntity
  8
CAPA_01
100
AcDbVertex
100
AcDb2dVertex
 10
301.3849614769712
 20
175.6811731174407
 30
0.0
  0
VERTEX
  5
DF
330
DD
100
AcDbEntity
  8
CAPA_01
100
AcDbVertex
100
AcDb2dVertex
 10
301.5631363381768
 20
173.5170648466261
 30
0.0
  0
VERTEX
  5
E0
330
DD
100
AcDbEntity
  8
CAPA_01
100
AcDbVertex
100
AcDb2dVertex
 10
300.3917057293438
 20
173.5170648466256
 30
0.0
  0
SEQEND
  5
E1
330
DD
100
AcDbEntity
  8
CAPA_01
  0
LINE
  5
E2
330
1F
100
AcDbEntity
  8
CAPA_01
100
AcDbLine
 10
300.3917057293438
 20
173.5170648466256
 30
0.0
 11
300.3917057293437
 21
57.51706484662327
 31
0.0
  0
POLYLINE
  5
E3
330
1F
100
AcDbEntity
  8
CAPA_01
100
AcDb2dPolyline
 66
     1
 10
0.0
 20
0.0
 30
0.0
  0
VERTEX
  5
E4
330
E3
100
AcDbEntity
  8
CAPA_01
100
AcDbVertex
100
AcDb2dVertex
 10
300.3917057293437
 20
57.51706484662327
 30
0.0
  0
VERTEX
  5
E5
330
E3
100
AcDbEntity
  8
CAPA_01
100
AcDbVertex
100
AcDb2dVertex
 10
301.5631363381771
 20
57.51706484662276
 30
0.0
  0
VERTEX
  5
E6
330
E3
100
AcDbEntity
  8
CAPA_01
100
AcDbVertex
100
AcDb2dVertex
 10
301.3849614769712
 20
55.35295657580735
 30
0.0
  0
SEQEND
  5
E7
330
E3
100
AcDbEntity
  8
CAPA_01
  0
ARC
  5
E8
330
1F
100
AcDbEntity
  8
CAPA_01
100
AcDbCircle
 10
442.8376868402817
 20
43.70690353463137
 30
0.0
 40
141.9313357372009
100
AcDbArc
 50
175.2933526896977
 51
183.2772784648517
  0
POLYLINE
  5
E9
330
1F
100
AcDbEntity
  8
CAPA_01
100
AcDb2dPolyline
 66
     1
 10
0.0
 20
0.0
 30
0.0
  0
VERTEX
  5
EA
330
E9
100
AcDbEntity
  8
CAPA_01
100
AcDbVertex
100
AcDb2dVertex
 10
301.138470431728
 20
35.59295669305391
 30
0.0
 42
0.0187006422082404
  0
VERTEX
  5
EB
330
E9
100
AcDbEntity
  8
CAPA_01
100
AcDbVertex
100
AcDb2dVertex
 10
303.369331583912
 20
15.81538678571673
 30
0.0
 42
-1.000000000000004
  0
VERTEX
  5
EC
330
E9
100
AcDbEntity
  8
CAPA_01
100
AcDbVertex
100
AcDb2dVertex
 10
287.5483247473675
 20
13.4288112729759
 30
0.0
 42
-0.0374474134210533
  0
VERTEX
  5
ED
330
E9
100
AcDbEntity
  8
CAPA_01
100
AcDbVertex
100
AcDb2dVertex
 10
284.3917057293439
 20
55.51706484662418
 30
0.0
  0
SEQEND
  5
EE
330
E9
100
AcDbEntity
  8
CAPA_01
  0
LINE
  5
EF
330
1F
100
AcDbEntity
  8
CAPA_01
100
AcDbLine
 10
321.9059975558435
 20
171.5170648466275
 30
0.0
 11
321.9059975558435
 21
291.5170648466279
 31
0.0
  0
POLYLINE
  5
F0
330
1F
100
AcDbEntity
  8
CAPA_01
100
AcDb2dPolyline
 66
     1
 10
0.0
 20
0.0
 30
0.0
  0
VERTEX
  5
F1
330
F0
100
AcDbEntity
  8
CAPA_01
100
AcDbVertex
100
AcDb2dVertex
 10
321.9059975558436
 20
291.5170648466279
 30
0.0
 42
0.0374474134210484
  0
VERTEX
  5
F2
330
F0
100
AcDbEntity
  8
CAPA_01
100
AcDbVertex
100
AcDb2dVertex
 10
318.7493785378198
 20
333.6053184202761
 30
0.0
 42
0.9999999999999859
  0
VERTEX
  5
F3
330
F0
100
AcDbEntity
  8
CAPA_01
100
AcDbVertex
100
AcDb2dVertex
 10
302.9283717012754
 20
331.2187429075357
 30
0.0
 42
-0.0187006422082459
  0
VERTEX
  5
F4
330
F0
100
AcDbEntity
  8
CAPA_01
100
AcDbVertex
100
AcDb2dVertex
 10
305.1592328534596
 20
311.441173000196
 30
0.0
  0
SEQEND
  5
F5
330
F0
100
AcDbEntity
  8
CAPA_01
  0
ARC
  5
F6
330
1F
100
AcDbEntity
  8
CAPA_01
100
AcDbCircle
 10
-163.4600164448786
 20
303.327226158623
 30
0.0
 40
141.931335737228
210
0.0
220
0.0
230
-1.0
100
AcDbArc
 50
176.7227215351508
 51
184.7066473103027
  0
POLYLINE
  5
F7
330
1F
100
AcDbEntity
  8
CAPA_01
100
AcDb2dPolyline
 66
     1
 10
0.0
 20
0.0
 30
0.0
  0
VERTEX
  5
F8
330
F7
100
AcDbEntity
  8
CAPA_01
100
AcDbVertex
100
AcDb2dVertex
 10
304.9127418082161
 20
291.681173117444
 30
0.0
  0
VERTEX
  5
F9
330
F7
100
AcDbEntity
  8
CAPA_01
100
AcDbVertex
100
AcDb2dVertex
 10
304.7345669470104
 20
289.5170648466294
 30
0.0
  0
VERTEX
  5
FA
330
F7
100
AcDbEntity
  8
CAPA_01
100
AcDbVertex
100
AcDb2dVertex
 10
305.9059975558434
 20
289.517064846629
 30
0.0
  0
SEQEND
  5
FB
330
F7
100
AcDbEntity
  8
CAPA_01
  0
LINE
  5
FC
330
1F
100
AcDbEntity
  8
CAPA_01
100
AcDbLine
 10
305.9059975558434
 20
289.517064846629
 30
0.0
 11
305.9059975558436
 21
173.5170648466266
 31
0.0
  0
POLYLINE
  5
FD
330
1F
100
AcDbEntity
  8
CAPA_01
100
AcDb2dPolyline
 66
     1
 10
0.0
 20
0.0
 30
0.0
  0
VERTEX
  5
FE
330
FD
100
AcDbEntity
  8
CAPA_01
100
AcDbVertex
100
AcDb2dVertex
 10
305.9059975558436
 20
173.5170648466266
 30
0.0
  0
VERTEX
  5
FF
330
FD
100
AcDbEntity
  8
CAPA_01
100
AcDbVertex
100
AcDb2dVertex
 10
304.7345669470102
 20
173.5170648466261
 30
0.0
  0
VERTEX
  5
100
330
FD
100
AcDbEntity
  8
CAPA_01
100
AcDbVertex
100
AcDb2dVertex
 10
304.9127418082161
 20
171.3529565758107
 30
0.0
  0
SEQEND
  5
101
330
FD
100
AcDbEntity
  8
CAPA_01
  0
ARC
  5
102
330
1F
100
AcDbEntity
  8
CAPA_01
100
AcDbCircle
 10
-163.4600164449052
 20
159.7069035346338
 30
0.0
 40
141.9313357372014
210
0.0
220
0.0
230
-1.0
100
AcDbArc
 50
175.2933526896974
 51
183.2772784648513
  0
POLYLINE
  5
103
330
1F
100
AcDbEntity
  8
CAPA_01
100
AcDb2dPolyline
 66
     1
 10
0.0
 20
0.0
 30
0.0
  0
VERTEX
  5
104
330
103
100
AcDbEntity
  8
CAPA_01
100
AcDbVertex
100
AcDb2dVertex
 10
305.1592328534593
 20
151.5929566930572
 30
0.0
 42
-0.0187006422082402
  0
VERTEX
  5
105
330
103
100
AcDbEntity
  8
CAPA_01
100
AcDbVertex
100
AcDb2dVertex
 10
302.9283717012753
 20
131.81538678572
 30
0.0
 42
0.9999999999999999
  0
VERTEX
  5
106
330
103
100
AcDbEntity
  8
CAPA_01
100
AcDbVertex
100
AcDb2dVertex
 10
318.7493785378198
 20
129.4288112729792
 30
0.0
 42
0.0374474134210547
  0
VERTEX
  5
107
330
103
100
AcDbEntity
  8
CAPA_01
100
AcDbVertex
100
AcDb2dVertex
 10
321.9059975558435
 20
171.5170648466275
 30
0.0
  0
SEQEND
  5
108
330
103
100
AcDbEntity
  8
CAPA_01
  0
ARC
  5
109
330
1F
100
AcDbEntity
  8
PREDETERMINADA
100
AcDbCircle
 10
39.73933088918858
 20
291.5170648466283
 30
0.0
 40
268.166666666655
100
AcDbArc
 50
4.289153328825465
 51
8.57830665764459
  0
ARC
  5
10A
330
1F
100
AcDbEntity
  8
PREDETERMINADA
100
AcDbCircle
 10
-310.8388751195475
 20
332.4120306639057
 30
0.0
 40
5.99999999999999
210
0.0
220
0.0
230
-1.0
100
AcDbArc
 50
351.4216933423653
 51
171.421693342362
  0
ARC
  5
10B
330
1F
100
AcDbEntity
  8
PREDETERMINADA
100
AcDbCircle
 10
-39.73933088915835
 20
291.5170648466256
 30
0.0
 40
280.1666666666852
210
0.0
220
0.0
230
-1.0
100
AcDbArc
 50
171.4216933423621
 51
179.9999999999995
  0
LINE
  5
10C
330
1F
100
AcDbEntity
  8
PREDETERMINADA
100
AcDbLine
 10
319.9059975558435
 20
291.5170648466279
 30
0.0
 11
319.9059975558435
 21
171.5170648466275
 31
0.0
  0
ARC
  5
10D
330
1F
100
AcDbEntity
  8
PREDETERMINADA
100
AcDbCircle
 10
-39.73933088915977
 20
171.5170648466297
 30
0.0
 40
280.1666666666837
210
0.0
220
0.0
230
-1.0
100
AcDbArc
 50
180.0000000000004
 51
188.578306657638
  0
ARC
  5
10E
330
1F
100
AcDbEntity
  8
PREDETERMINADA
100
AcDbCircle
 10
-310.8388751195475
 20
130.6220990293496
 30
0.0
 40
6.000000000000012
210
0.0
220
0.0
230
-1.0
100
AcDbArc
 50
188.578306657638
 51
8.578306657640235
  0
ARC
  5
10F
330
1F
100
AcDbEntity
  8
PREDETERMINADA
100
AcDbCircle
 10
39.73933088912366
 20
171.5170648466351
 30
0.0
 40
268.1666666667203
100
AcDbArc
 50
351.4216933423621
 51
355.71084667118
  0
ARC
  5
110
330
1F
100
AcDbEntity
  8
PREDETERMINADA
100
AcDbCircle
 10
163.4600164448968
 20
159.7069035346335
 30
0.0
 40
143.9313357372098
100
AcDbArc
 50
356.715653340971
 51
4.706647310302461
  0
LINE
  5
111
330
1F
100
AcDbEntity
  8
PREDETERMINADA
100
AcDbLine
 10
306.9059975558436
 20
171.517064846627
 30
0.0
 11
307.9059975558436
 21
171.5170648466274
 31
0.0
  0
LINE
  5
112
330
1F
100
AcDbEntity
  8
PREDETERMINADA
100
AcDbLine
 10
307.9059975558436
 20
171.5170648466274
 30
0.0
 11
307.9059975558436
 21
291.5170648466283
 31
0.0
  0
LINE
  5
113
330
1F
100
AcDbEntity
  8
PREDETERMINADA
100
AcDbLine
 10
307.9059975558436
 20
291.5170648466283
 30
0.0
 11
306.9059975558436
 21
291.5170648466286
 31
0.0
  0
ARC
  5
114
330
1F
100
AcDbEntity
  8
PREDETERMINADA
100
AcDbCircle
 10
163.460016444892
 20
303.3272261586227
 30
0.0
 40
143.9313357372147
100
AcDbArc
 50
355.2933526896975
 51
3.284346659028802
  0
LINE
  5
115
330
1F
100
AcDbEntity
  8
PREDETERMINADA
100
AcDbLine
 10
38.32871885633715
 20
174.988487791424
 30
0.0
 11
210.8132954686274
 21
174.9884877914264
 31
0.0
  0
ARC
  5
116
330
1F
100
AcDbEntity
  8
PREDETERMINADA
100
AcDbCircle
 10
210.813295468629
 20
188.9884877914264
 30
0.0
 40
14.0
100
AcDbArc
 50
269.9999999999936
 51
69.44395478041882
  0
LINE
  5
117
330
1F
100
AcDbEntity
  8
PREDETERMINADA
100
AcDbLine
 10
215.7290236508658
 20
202.0970962773931
 30
0.0
 11
186.3519796134433
 21
213.1134877914245
 31
0.0
  0
LINE
  5
118
330
1F
100
AcDbEntity
  8
PREDETERMINADA
100
AcDbLine
 10
186.3519796134433
 20
213.1134877914245
 30
0.0
 11
174.5710071624815
 21
214.988487791424
 31
0.0
  0
LINE
  5
119
330
1F
100
AcDbEntity
  8
PREDETERMINADA
100
AcDbLine
 10
174.5710071624815
 20
214.988487791424
 30
0.0
 11
74.57100716248154
 21
214.988487791424
 31
0.0
  0
LINE
  5
11A
330
1F
100
AcDbEntity
  8
PREDETERMINADA
100
AcDbLine
 10
74.57100716248154
 20
214.988487791424
 30
0.0
 11
62.79003471151974
 21
213.113487791424
 31
0.0
  0
LINE
  5
11B
330
1F
100
AcDbEntity
  8
PREDETERMINADA
100
AcDbLine
 10
62.79003471151974
 20
213.113487791424
 30
0.0
 11
33.41299067409743
 21
202.0970962773906
 31
0.0
  0
ARC
  5
11C
330
1F
100
AcDbEntity
  8
PREDETERMINADA
100
AcDbCircle
 10
38.32871885633487
 20
188.988487791424
 30
0.0
 40
13.99999999999998
100
AcDbArc
 50
110.556045219584
 51
270.0000000000094
  0
LINE
  5
11D
330
1F
100
AcDbEntity
  8
PREDETERMINADA
100
AcDbLine
 10
38.32871885633715
 20
262.9884877914237
 30
0.0
 11
210.8132954686274
 21
262.9884877914261
 31
0.0
  0
ARC
  5
11E
330
1F
100
AcDbEntity
  8
PREDETERMINADA
100
AcDbCircle
 10
210.813295468629
 20
276.9884877914261
 30
0.0
 40
14.0
100
AcDbArc
 50
269.9999999999936
 51
69.44395478041885
  0
LINE
  5
11F
330
1F
100
AcDbEntity
  8
PREDETERMINADA
100
AcDbLine
 10
215.7290236508658
 20
290.0970962773929
 30
0.0
 11
186.3519796134433
 21
301.1134877914243
 31
0.0
  0
LINE
  5
120
330
1F
100
AcDbEntity
  8
PREDETERMINADA
100
AcDbLine
 10
186.3519796134433
 20
301.1134877914243
 30
0.0
 11
174.5710071624815
 21
302.9884877914237
 31
0.0
  0
LINE
  5
121
330
1F
100
AcDbEntity
  8
PREDETERMINADA
100
AcDbLine
 10
174.5710071624815
 20
302.9884877914237
 30
0.0
 11
74.57100716248154
 21
302.9884877914237
 31
0.0
  0
LINE
  5
122
330
1F
100
AcDbEntity
  8
PREDETERMINADA
100
AcDbLine
 10
74.57100716248154
 20
302.9884877914237
 30
0.0
 11
62.79003471151974
 21
301.1134877914237
 31
0.0
  0
LINE
  5
123
330
1F
100
AcDbEntity
  8
PREDETERMINADA
100
AcDbLine
 10
62.79003471151974
 20
301.1134877914237
 30
0.0
 11
33.41299067409743
 21
290.0970962773904
 31
0.0
  0
ARC
  5
124
330
1F
100
AcDbEntity
  8
PREDETERMINADA
100
AcDbCircle
 10
38.32871885633487
 20
276.9884877914237
 30
0.0
 40
13.99999999999998
100
AcDbArc
 50
110.5560452195812
 51
270.0000000000065
  0
LINE
  5
125
330
1F
100
AcDbEntity
  8
CAPA_01
100
AcDbLine
 10
38.32871885633735
 20
260.9884877914238
 30
0.0
 11
210.8132954686272
 21
260.9884877914216
 31
0.0
  0
ARC
  5
126
330
1F
100
AcDbEntity
  8
CAPA_01
100
AcDbCircle
 10
-210.813295468629
 20
244.9884877914217
 30
0.0
 40
15.99999999999989
210
0.0
220
0.0
230
-1.0
100
AcDbArc
 50
89.99999999999359
 51
249.4439547804194
  0
LINE
  5
127
330
1F
100
AcDbEntity
  8
CAPA_01
100
AcDbLine
 10
216.4312705340425
 20
230.0072209503167
 30
0.0
 11
186.8654453745622
 21
218.9200365155135
 31
0.0
  0
LINE
  5
128
330
1F
100
AcDbEntity
  8
CAPA_01
100
AcDbLine
 10
186.8654453745622
 20
218.9200365155135
 30
0.0
 11
174.729166811257
 21
216.988487791424
 31
0.0
  0
LINE
  5
129
330
1F
100
AcDbEntity
  8
CAPA_01
100
AcDbLine
 10
174.729166811257
 20
216.988487791424
 30
0.0
 11
74.41284751370607
 21
216.988487791424
 31
0.0
  0
LINE
  5
12A
330
1F
100
AcDbEntity
  8
CAPA_01
100
AcDbLine
 10
74.41284751370607
 20
216.988487791424
 30
0.0
 11
62.2765689504008
 21
218.9200365155142
 31
0.0
  0
LINE
  5
12B
330
1F
100
AcDbEntity
  8
CAPA_01
100
AcDbLine
 10
62.2765689504008
 20
218.9200365155142
 30
0.0
 11
32.71074379092055
 21
230.0072209503193
 31
0.0
  0
ARC
  5
12C
330
1F
100
AcDbEntity
  8
CAPA_01
100
AcDbCircle
 10
-38.32871885633479
 20
244.9884877914239
 30
0.0
 40
15.99999999999988
210
0.0
220
0.0
230
-1.0
100
AcDbArc
 50
290.5560452195836
 51
90.00000000000915
  0
ARC
  5
12D
330
1F
100
AcDbEntity
  8
PREDETERMINADO
100
AcDbCircle
 10
-203.8132954686267
 20
244.130855245775
 30
0.0
 40
2.0
210
0.0
220
0.0
230
-1.0
100
AcDbArc
 50
180.0
 51
239.9999999999981
  0
ARC
  5
12E
330
1F
100
AcDbEntity
  8
PREDETERMINADO
100
AcDbCircle
 10
205.8132954686267
 20
240.6667536306373
 30
0.0
 40
2.00000000000002
100
AcDbArc
 50
119.9999999999997
 51
307.3856741550521
  0
ARC
  5
12F
330
1F
100
AcDbEntity
  8
PREDETERMINADO
100
AcDbCircle
 10
-208.2420042315867
 20
237.4884877914222
 30
0.0
 40
2.000000000000057
210
0.0
220
0.0
230
-1.0
100
AcDbArc
 50
52.61432584494261
 51
89.99999999999675
  0
LINE
  5
130
330
1F
100
AcDbEntity
  8
PREDETERMINADO
100
AcDbLine
 10
208.2420042315867
 20
239.4884877914222
 30
0.0
 11
208.8845867056702
 21
239.4884877914222
 31
0.0
  0
ARC
  5
131
330
1F
100
AcDbEntity
  8
PREDETERMINADO
100
AcDbCircle
 10
-208.8845867056701
 20
237.4884877914222
 30
0.0
 40
2.000000000000032
210
0.0
220
0.0
230
-1.0
100
AcDbArc
 50
90.00000000000325
 51
127.3856741549957
  0
ARC
  5
132
330
1F
100
AcDbEntity
  8
PREDETERMINADO
100
AcDbCircle
 10
211.3132954686267
 20
240.6667536306398
 30
0.0
 40
2.0
100
AcDbArc
 50
232.6143258450015
 51
59.99999999999915
  0
ARC
  5
133
330
1F
100
AcDbEntity
  8
PREDETERMINADO
100
AcDbCircle
 10
-213.3132954686266
 20
244.1308552457776
 30
0.0
 40
2.0
210
0.0
220
0.0
230
-1.0
100
AcDbArc
 50
299.999999999998
 51
0.0
  0
LINE
  5
134
330
1F
100
AcDbEntity
  8
PREDETERMINADO
100
AcDbLine
 10
211.3132954686266
 20
244.1308552457776
 30
0.0
 11
211.3132954686267
 21
247.3461203370644
 31
0.0
  0
ARC
  5
135
330
1F
100
AcDbEntity
  8
PREDETERMINADO
100
AcDbCircle
 10
-213.3132954686267
 20
247.3461203370643
 30
0.0
 40
1.999999999999972
210
0.0
220
0.0
230
-1.0
100
AcDbArc
 50
0.0000000000032569
 51
60.0000000000035
  0
ARC
  5
136
330
1F
100
AcDbEntity
  8
PREDETERMINADO
100
AcDbCircle
 10
211.3132954686267
 20
250.8102219522021
 30
0.0
 40
1.999999999999988
100
AcDbArc
 50
299.9999999999965
 51
127.385674154931
  0
ARC
  5
137
330
1F
100
AcDbEntity
  8
PREDETERMINADO
100
AcDbCircle
 10
-208.8845867056735
 20
253.9884877914222
 30
0.0
 40
1.999999999999929
210
0.0
220
0.0
230
-1.0
100
AcDbArc
 50
232.6143258450616
 51
270.0
  0
LINE
  5
138
330
1F
100
AcDbEntity
  8
PREDETERMINADO
100
AcDbLine
 10
208.8845867056735
 20
251.9884877914222
 30
0.0
 11
208.2420042315833
 21
251.9884877914222
 31
0.0
  0
ARC
  5
139
330
1F
100
AcDbEntity
  8
PREDETERMINADO
100
AcDbCircle
 10
-208.2420042315833
 20
253.9884877914222
 30
0.0
 40
1.999999999999943
210
0.0
220
0.0
230
-1.0
100
AcDbArc
 50
270.0
 51
307.3856741549936
  0
ARC
  5
13A
330
1F
100
AcDbEntity
  8
PREDETERMINADO
100
AcDbCircle
 10
205.8132954686267
 20
250.8102219522046
 30
0.0
 40
1.999999999999996
100
AcDbArc
 50
52.61432584500448
 51
239.9999999999998
  0
ARC
  5
13B
330
1F
100
AcDbEntity
  8
PREDETERMINADO
100
AcDbCircle
 10
-203.8132954686266
 20
247.3461203370669
 30
0.0
 40
2.000000000000028
210
0.0
220
0.0
230
-1.0
100
AcDbArc
 50
120.0000000000041
 51
180.0
  0
LINE
  5
13C
330
1F
100
AcDbEntity
  8
PREDETERMINADO
100
AcDbLine
 10
205.8132954686267
 20
247.3461203370669
 30
0.0
 11
205.8132954686267
 21
244.130855245775
 31
0.0
  0
ARC
  5
13D
330
1F
100
AcDbEntity
  8
PREDETERMINADO
100
AcDbCircle
 10
45.32871885633784
 20
247.3461203370669
 30
0.0
 40
2.000000000000014
100
AcDbArc
 50
120.0000000000034
 51
180.0
  0
LINE
  5
13E
330
1F
100
AcDbEntity
  8
PREDETERMINADO
100
AcDbLine
 10
43.32871885633783
 20
247.346120337067
 30
0.0
 11
43.32871885633783
 21
244.130855245775
 31
0.0
  0
ARC
  5
13F
330
1F
100
AcDbEntity
  8
PREDETERMINADO
100
AcDbCircle
 10
45.32871885633784
 20
244.130855245775
 30
0.0
 40
2.000000000000014
100
AcDbArc
 50
180.0
 51
239.9999999999977
  0
ARC
  5
140
330
1F
100
AcDbEntity
  8
PREDETERMINADO
100
AcDbCircle
 10
-43.32871885633772
 20
240.6667536306373
 30
0.0
 40
2.000000000000004
210
0.0
220
0.0
230
-1.0
100
AcDbArc
 50
120.0000000000021
 51
307.3856741550537
  0
ARC
  5
141
330
1F
100
AcDbEntity
  8
PREDETERMINADO
100
AcDbCircle
 10
40.90001009337779
 20
237.4884877914222
 30
0.0
 40
2.00000000000005
100
AcDbArc
 50
52.61432584494456
 51
89.99999999999919
  0
LINE
  5
142
330
1F
100
AcDbEntity
  8
PREDETERMINADO
100
AcDbLine
 10
40.90001009337782
 20
239.4884877914222
 30
0.0
 11
40.25742761929426
 21
239.4884877914222
 31
0.0
  0
ARC
  5
143
330
1F
100
AcDbEntity
  8
PREDETERMINADO
100
AcDbCircle
 10
40.25742761929432
 20
237.4884877914222
 30
0.0
 40
1.999999999999975
100
AcDbArc
 50
90.00000000000162
 51
127.3856741549952
  0
ARC
  5
144
330
1F
100
AcDbEntity
  8
PREDETERMINADO
100
AcDbCircle
 10
-37.82871885633772
 20
240.6667536306398
 30
0.0
 40
1.999999999999986
210
0.0
220
0.0
230
-1.0
100
AcDbArc
 50
232.6143258450043
 51
60.00000000000279
  0
ARC
  5
145
330
1F
100
AcDbEntity
  8
PREDETERMINADO
100
AcDbCircle
 10
35.82871885633791
 20
244.1308552457776
 30
0.0
 40
1.99999999999994
100
AcDbArc
 50
299.9999999999964
 51
0.0
  0
LINE
  5
146
330
1F
100
AcDbEntity
  8
PREDETERMINADO
100
AcDbLine
 10
37.82871885633786
 20
244.1308552457776
 30
0.0
 11
37.8287188563378
 21
247.3461203370644
 31
0.0
  0
ARC
  5
147
330
1F
100
AcDbEntity
  8
PREDETERMINADO
100
AcDbCircle
 10
35.82871885633782
 20
247.3461203370643
 30
0.0
 40
1.999999999999989
100
AcDbArc
 50
0.0
 51
59.99999999999986
  0
ARC
  5
148
330
1F
100
AcDbEntity
  8
PREDETERMINADO
100
AcDbCircle
 10
-37.82871885633772
 20
250.8102219522021
 30
0.0
 40
1.999999999999995
210
0.0
220
0.0
230
-1.0
100
AcDbArc
 50
299.9999999999966
 51
127.3856741549343
  0
ARC
  5
149
330
1F
100
AcDbEntity
  8
PREDETERMINADO
100
AcDbCircle
 10
40.25742761929102
 20
253.9884877914223
 30
0.0
 40
2.000000000000021
100
AcDbArc
 50
232.6143258450636
 51
270.0
  0
LINE
  5
14A
330
1F
100
AcDbEntity
  8
PREDETERMINADO
100
AcDbLine
 10
40.25742761929102
 20
251.9884877914222
 30
0.0
 11
40.90001009338123
 21
251.9884877914222
 31
0.0
  0
ARC
  5
14B
330
1F
100
AcDbEntity
  8
PREDETERMINADO
100
AcDbCircle
 10
40.90001009338123
 20
253.9884877914222
 30
0.0
 40
2.0
100
AcDbArc
 50
270.0
 51
307.3856741549932
  0
ARC
  5
14C
330
1F
100
AcDbEntity
  8
PREDETERMINADO
100
AcDbCircle
 10
-43.32871885633771
 20
250.8102219522046
 30
0.0
 40
1.999999999999999
210
0.0
220
0.0
230
-1.0
100
AcDbArc
 50
52.61432584500692
 51
239.9999999999995
  0
CIRCLE
  5
14D
330
1F
100
AcDbEntity
  8
PREDETERMINADO
100
AcDbCircle
 10
-22.31377089433811
 20
216.988487791424
 30
0.0
 40
5.0
210
0.0
220
0.0
230
-1.0
  0
CIRCLE
  5
14E
330
1F
100
AcDbEntity
  8
PREDETERMINADO
100
AcDbCircle
 10
-22.31377089433811
 20
128.9884877914242
 30
0.0
 40
5.0
210
0.0
220
0.0
230
-1.0
  0
LINE
  5
14F
330
1F
100
AcDbEntity
  8
CAPA_03
100
AcDbLine
 10
68.68052093700065
 20
126.0509877914242
 30
0.0
 11
68.68052093700065
 21
86.98848779142432
 31
0.0
  0
CIRCLE
  5
150
330
1F
100
AcDbEntity
  8
PREDETERMINADO
100
AcDbCircle
 10
-22.31377089433811
 20
40.98848779142443
 30
0.0
 40
5.0
210
0.0
220
0.0
230
-1.0
  0
CIRCLE
  5
152
330
1F
100
AcDbEntity
  8
CAPA_02
  6
CONTINUOUS
100
AcDbCircle
 10
-149.5710071624816
 20
106.9884877914242
 30
0.0
 40
3.000000000000028
210
0.0
220
0.0
230
-1.0
  0
LINE
  5
153
330
1F
100
AcDbEntity
  8
CAPA_01
100
AcDbLine
 10
38.32871885633735
 20
84.98848779142432
 30
0.0
 11
210.8132954686272
 21
84.98848779142659
 31
0.0
  0
ARC
  5
154
330
1F
100
AcDbEntity
  8
CAPA_01
100
AcDbCircle
 10
210.8132954686289
 20
100.9884877914266
 30
0.0
 40
15.99999999999996
100
AcDbArc
 50
269.999999999994
 51
69.44395478041909
  0
LINE
  5
155
330
1F
100
AcDbEntity
  8
CAPA_01
100
AcDbLine
 10
216.4312705340425
 20
115.9697546325315
 30
0.0
 11
186.8654453745622
 21
127.0569390673346
 31
0.0
  0
LINE
  5
156
330
1F
100
AcDbEntity
  8
CAPA_01
100
AcDbLine
 10
186.8654453745622
 20
127.0569390673346
 30
0.0
 11
174.729166811257
 21
128.9884877914242
 31
0.0
  0
LINE
  5
157
330
1F
100
AcDbEntity
  8
CAPA_01
100
AcDbLine
 10
174.729166811257
 20
128.9884877914242
 30
0.0
 11
74.41284751370607
 21
128.9884877914242
 31
0.0
  0
LINE
  5
158
330
1F
100
AcDbEntity
  8
CAPA_01
100
AcDbLine
 10
74.41284751370607
 20
128.9884877914242
 30
0.0
 11
62.2765689504008
 21
127.056939067334
 31
0.0
  0
LINE
  5
159
330
1F
100
AcDbEntity
  8
CAPA_01
100
AcDbLine
 10
62.2765689504008
 20
127.056939067334
 30
0.0
 11
32.71074379092055
 21
115.9697546325289
 31
0.0
  0
ARC
  5
15A
330
1F
100
AcDbEntity
  8
CAPA_01
100
AcDbCircle
 10
38.32871885633484
 20
100.9884877914243
 30
0.0
 40
15.99999999999993
100
AcDbArc
 50
110.5560452195837
 51
270.000000000009
  0
LINE
  5
15B
330
1F
100
AcDbEntity
  8
PREDETERMINADA
100
AcDbLine
 10
38.32871885633715
 20
86.9884877914242
 30
0.0
 11
210.8132954686274
 21
86.98848779142659
 31
0.0
  0
ARC
  5
15C
330
1F
100
AcDbEntity
  8
PREDETERMINADA
100
AcDbCircle
 10
210.813295468629
 20
100.9884877914266
 30
0.0
 40
14.0
100
AcDbArc
 50
269.9999999999936
 51
69.44395478041882
  0
LINE
  5
15D
330
1F
100
AcDbEntity
  8
PREDETERMINADA
100
AcDbLine
 10
215.7290236508658
 20
114.0970962773934
 30
0.0
 11
186.3519796134433
 21
125.1134877914248
 31
0.0
  0
LINE
  5
15E
330
1F
100
AcDbEntity
  8
PREDETERMINADA
100
AcDbLine
 10
186.3519796134433
 20
125.1134877914248
 30
0.0
 11
174.5710071624815
 21
126.9884877914242
 31
0.0
  0
LINE
  5
15F
330
1F
100
AcDbEntity
  8
PREDETERMINADA
100
AcDbLine
 10
174.5710071624815
 20
126.9884877914242
 30
0.0
 11
74.57100716248154
 21
126.9884877914242
 31
0.0
  0
LINE
  5
160
330
1F
100
AcDbEntity
  8
PREDETERMINADA
100
AcDbLine
 10
74.57100716248154
 20
126.9884877914242
 30
0.0
 11
62.79003471151974
 21
125.1134877914242
 31
0.0
  0
LINE
  5
161
330
1F
100
AcDbEntity
  8
PREDETERMINADA
100
AcDbLine
 10
62.79003471151974
 20
125.1134877914242
 30
0.0
 11
33.41299067409743
 21
114.0970962773909
 31
0.0
  0
ARC
  5
162
330
1F
100
AcDbEntity
  8
PREDETERMINADA
100
AcDbCircle
 10
38.32871885633487
 20
100.9884877914242
 30
0.0
 40
13.99999999999998
100
AcDbArc
 50
110.556045219583
 51
270.0000000000083
  0
CIRCLE
  5
163
330
1F
100
AcDbEntity
  8
CAPA_02
  6
CONTINUOUS
100
AcDbCircle
 10
-149.5710071624816
 20
282.9884877914237
 30
0.0
 40
3.000000000000028
210
0.0
220
0.0
230
-1.0
  0
ARC
  5
164
330
1F
100
AcDbEntity
  8
PREDETERMINADO
100
AcDbCircle
 10
45.32871885633784
 20
71.34612033706736
 30
0.0
 40
2.000000000000014
100
AcDbArc
 50
120.0000000000036
 51
180.0
  0
LINE
  5
165
330
1F
100
AcDbEntity
  8
PREDETERMINADO
100
AcDbLine
 10
43.32871885633783
 20
71.34612033706739
 30
0.0
 11
43.32871885633783
 21
68.13085524577548
 31
0.0
  0
ARC
  5
166
330
1F
100
AcDbEntity
  8
PREDETERMINADO
100
AcDbCircle
 10
45.32871885633784
 20
68.13085524577548
 30
0.0
 40
2.000000000000014
100
AcDbArc
 50
180.0
 51
239.9999999999979
  0
ARC
  5
167
330
1F
100
AcDbEntity
  8
PREDETERMINADO
100
AcDbCircle
 10
-43.32871885633772
 20
64.66675363063779
 30
0.0
 40
2.000000000000004
210
0.0
220
0.0
230
-1.0
100
AcDbArc
 50
120.0000000000021
 51
307.3856741550536
  0
ARC
  5
168
330
1F
100
AcDbEntity
  8
PREDETERMINADO
100
AcDbCircle
 10
40.90001009337779
 20
61.48848779142263
 30
0.0
 40
2.00000000000005
100
AcDbArc
 50
52.61432584494468
 51
89.99999999999919
  0
LINE
  5
169
330
1F
100
AcDbEntity
  8
PREDETERMINADO
100
AcDbLine
 10
40.90001009337782
 20
63.48848779142267
 30
0.0
 11
40.25742761929426
 21
63.48848779142267
 31
0.0
  0
ARC
  5
16A
330
1F
100
AcDbEntity
  8
PREDETERMINADO
100
AcDbCircle
 10
40.25742761929432
 20
61.48848779142268
 30
0.0
 40
1.999999999999975
100
AcDbArc
 50
90.00000000000162
 51
127.3856741549952
  0
ARC
  5
16B
330
1F
100
AcDbEntity
  8
PREDETERMINADO
100
AcDbCircle
 10
-37.82871885633772
 20
64.66675363064027
 30
0.0
 40
1.999999999999986
210
0.0
220
0.0
230
-1.0
100
AcDbArc
 50
232.6143258450042
 51
60.00000000000259
  0
ARC
  5
16C
330
1F
100
AcDbEntity
  8
PREDETERMINADO
100
AcDbCircle
 10
35.82871885633791
 20
68.13085524577806
 30
0.0
 40
1.99999999999994
100
AcDbArc
 50
299.9999999999973
 51
0.0000000000008142
  0
LINE
  5
16D
330
1F
100
AcDbEntity
  8
PREDETERMINADO
100
AcDbLine
 10
37.82871885633786
 20
68.1308552457781
 30
0.0
 11
37.8287188563378
 21
71.34612033706478
 31
0.0
  0
ARC
  5
16E
330
1F
100
AcDbEntity
  8
PREDETERMINADO
100
AcDbCircle
 10
35.82871885633782
 20
71.34612033706475
 30
0.0
 40
1.999999999999989
100
AcDbArc
 50
0.0000000000008142
 51
60.0000000000006
  0
ARC
  5
16F
330
1F
100
AcDbEntity
  8
PREDETERMINADO
100
AcDbCircle
 10
-37.82871885633772
 20
74.81022195220257
 30
0.0
 40
1.999999999999995
210
0.0
220
0.0
230
-1.0
100
AcDbArc
 50
299.9999999999972
 51
127.3856741549349
  0
ARC
  5
170
330
1F
100
AcDbEntity
  8
PREDETERMINADO
100
AcDbCircle
 10
40.25742761929102
 20
77.98848779142276
 30
0.0
 40
2.000000000000021
100
AcDbArc
 50
232.6143258450638
 51
270.0
  0
LINE
  5
171
330
1F
100
AcDbEntity
  8
PREDETERMINADO
100
AcDbLine
 10
40.25742761929102
 20
75.98848779142273
 30
0.0
 11
40.90001009338123
 21
75.98848779142273
 31
0.0
  0
ARC
  5
172
330
1F
100
AcDbEntity
  8
PREDETERMINADO
100
AcDbCircle
 10
40.90001009338123
 20
77.98848779142273
 30
0.0
 40
2.0
100
AcDbArc
 50
270.0
 51
307.3856741549932
  0
ARC
  5
173
330
1F
100
AcDbEntity
  8
PREDETERMINADO
100
AcDbCircle
 10
-43.32871885633771
 20
74.81022195220504
 30
0.0
 40
1.999999999999999
210
0.0
220
0.0
230
-1.0
100
AcDbArc
 50
52.61432584500643
 51
239.9999999999989
  0
ARC
  5
174
330
1F
100
AcDbEntity
  8
PREDETERMINADO
100
AcDbCircle
 10
-203.8132954686267
 20
68.13085524577548
 30
0.0
 40
2.0
210
0.0
220
0.0
230
-1.0
100
AcDbArc
 50
180.0
 51
239.9999999999981
  0
ARC
  5
175
330
1F
100
AcDbEntity
  8
PREDETERMINADO
100
AcDbCircle
 10
205.8132954686267
 20
64.66675363063777
 30
0.0
 40
2.00000000000002
100
AcDbArc
 50
119.9999999999997
 51
307.385674155053
  0
ARC
  5
176
330
1F
100
AcDbEntity
  8
PREDETERMINADO
100
AcDbCircle
 10
-208.2420042315867
 20
61.48848779142261
 30
0.0
 40
2.000000000000057
210
0.0
220
0.0
230
-1.0
100
AcDbArc
 50
52.61432584494236
 51
89.99999999999675
  0
LINE
  5
177
330
1F
100
AcDbEntity
  8
PREDETERMINADO
100
AcDbLine
 10
208.2420042315867
 20
63.48848779142267
 30
0.0
 11
208.8845867056702
 21
63.48848779142267
 31
0.0
  0
ARC
  5
178
330
1F
100
AcDbEntity
  8
PREDETERMINADO
100
AcDbCircle
 10
-208.8845867056701
 20
61.48848779142263
 30
0.0
 40
2.000000000000032
210
0.0
220
0.0
230
-1.0
100
AcDbArc
 50
90.00000000000325
 51
127.3856741549957
  0
ARC
  5
179
330
1F
100
AcDbEntity
  8
PREDETERMINADO
100
AcDbCircle
 10
211.3132954686267
 20
64.6667536306403
 30
0.0
 40
2.0
100
AcDbArc
 50
232.6143258450028
 51
60.00000000000008
  0
ARC
  5
17A
330
1F
100
AcDbEntity
  8
PREDETERMINADO
100
AcDbCircle
 10
-213.3132954686266
 20
68.13085524577806
 30
0.0
 40
2.0
210
0.0
220
0.0
230
-1.0
100
AcDbArc
 50
299.999999999999
 51
0.0000000000008142
  0
LINE
  5
17B
330
1F
100
AcDbEntity
  8
PREDETERMINADO
100
AcDbLine
 10
211.3132954686266
 20
68.1308552457781
 30
0.0
 11
211.3132954686267
 21
71.34612033706478
 31
0.0
  0
ARC
  5
17C
330
1F
100
AcDbEntity
  8
PREDETERMINADO
100
AcDbCircle
 10
-213.3132954686267
 20
71.34612033706476
 30
0.0
 40
1.999999999999972
210
0.0
220
0.0
230
-1.0
100
AcDbArc
 50
0.0000000000008142
 51
60.00000000000129
  0
ARC
  5
17D
330
1F
100
AcDbEntity
  8
PREDETERMINADO
100
AcDbCircle
 10
211.3132954686267
 20
74.81022195220254
 30
0.0
 40
1.999999999999988
100
AcDbArc
 50
300.0000000000001
 51
127.3856741549349
  0
ARC
  5
17E
330
1F
100
AcDbEntity
  8
PREDETERMINADO
100
AcDbCircle
 10
-208.8845867056735
 20
77.98848779142266
 30
0.0
 40
1.999999999999929
210
0.0
220
0.0
230
-1.0
100
AcDbArc
 50
232.6143258450619
 51
270.0
  0
LINE
  5
17F
330
1F
100
AcDbEntity
  8
PREDETERMINADO
100
AcDbLine
 10
208.8845867056735
 20
75.98848779142273
 30
0.0
 11
208.2420042315833
 21
75.98848779142273
 31
0.0
  0
ARC
  5
180
330
1F
100
AcDbEntity
  8
PREDETERMINADO
100
AcDbCircle
 10
-208.2420042315833
 20
77.98848779142267
 30
0.0
 40
1.999999999999943
210
0.0
220
0.0
230
-1.0
100
AcDbArc
 50
270.0
 51
307.3856741549936
  0
ARC
  5
181
330
1F
100
AcDbEntity
  8
PREDETERMINADO
100
AcDbCircle
 10
205.8132954686267
 20
74.81022195220505
 30
0.0
 40
1.999999999999996
100
AcDbArc
 50
52.61432584500472
 51
240.0000000000005
  0
ARC
  5
182
330
1F
100
AcDbEntity
  8
PREDETERMINADO
100
AcDbCircle
 10
-203.8132954686266
 20
71.34612033706736
 30
0.0
 40
2.000000000000028
210
0.0
220
0.0
230
-1.0
100
AcDbArc
 50
120.0000000000041
 51
180.0
  0
LINE
  5
183
330
1F
100
AcDbEntity
  8
PREDETERMINADO
100
AcDbLine
 10
205.8132954686267
 20
71.34612033706736
 30
0.0
 11
205.8132954686267
 21
68.13085524577548
 31
0.0
  0
CIRCLE
  5
184
330
1F
100
AcDbEntity
  8
CAPA_02
  6
CONTINUOUS
100
AcDbCircle
 10
99.57100716248154
 20
62.98848779142443
 30
0.0
 40
3.0
  0
ARC
  5
185
330
1F
100
AcDbEntity
  8
PREDETERMINADO
100
AcDbCircle
 10
-45.32871885633784
 20
98.63085524578128
 30
0.0
 40
2.000000000000014
210
0.0
220
0.0
230
-1.0
100
AcDbArc
 50
300.0000000000036
 51
0.0
  0
LINE
  5
186
330
1F
100
AcDbEntity
  8
PREDETERMINADO
100
AcDbLine
 10
43.32871885633783
 20
98.63085524578125
 30
0.0
 11
43.32871885633783
 21
101.8461203370732
 31
0.0
  0
ARC
  5
187
330
1F
100
AcDbEntity
  8
PREDETERMINADO
100
AcDbCircle
 10
-45.32871885633784
 20
101.8461203370732
 30
0.0
 40
2.000000000000014
210
0.0
220
0.0
230
-1.0
100
AcDbArc
 50
0.0
 51
59.9999999999979
  0
ARC
  5
188
330
1F
100
AcDbEntity
  8
PREDETERMINADO
100
AcDbCircle
 10
43.32871885633772
 20
105.3102219522108
 30
0.0
 40
2.000000000000004
100
AcDbArc
 50
300.0000000000021
 51
127.3856741550534
  0
ARC
  5
189
330
1F
100
AcDbEntity
  8
PREDETERMINADO
100
AcDbCircle
 10
-40.90001009337779
 20
108.488487791426
 30
0.0
 40
2.00000000000005
210
0.0
220
0.0
230
-1.0
100
AcDbArc
 50
232.6143258449445
 51
269.9999999999992
  0
LINE
  5
18A
330
1F
100
AcDbEntity
  8
PREDETERMINADO
100
AcDbLine
 10
40.90001009337782
 20
106.488487791426
 30
0.0
 11
40.25742761929426
 21
106.488487791426
 31
0.0
  0
ARC
  5
18B
330
1F
100
AcDbEntity
  8
PREDETERMINADO
100
AcDbCircle
 10
-40.25742761929432
 20
108.4884877914259
 30
0.0
 40
1.999999999999975
210
0.0
220
0.0
230
-1.0
100
AcDbArc
 50
270.0000000000016
 51
307.3856741549952
  0
ARC
  5
18C
330
1F
100
AcDbEntity
  8
PREDETERMINADO
100
AcDbCircle
 10
37.82871885633772
 20
105.3102219522084
 30
0.0
 40
1.999999999999986
100
AcDbArc
 50
52.61432584500431
 51
240.0000000000026
  0
ARC
  5
18D
330
1F
100
AcDbEntity
  8
PREDETERMINADO
100
AcDbCircle
 10
-35.82871885633791
 20
101.8461203370706
 30
0.0
 40
1.99999999999994
210
0.0
220
0.0
230
-1.0
100
AcDbArc
 50
119.9999999999982
 51
180.0000000000016
  0
LINE
  5
18E
330
1F
100
AcDbEntity
  8
PREDETERMINADO
100
AcDbLine
 10
37.82871885633786
 20
101.8461203370705
 30
0.0
 11
37.8287188563378
 21
98.63085524578386
 31
0.0
  0
ARC
  5
18F
330
1F
100
AcDbEntity
  8
PREDETERMINADO
100
AcDbCircle
 10
-35.82871885633782
 20
98.63085524578389
 30
0.0
 40
1.999999999999989
210
0.0
220
0.0
230
-1.0
100
AcDbArc
 50
180.0000000000008
 51
240.0000000000006
  0
ARC
  5
190
330
1F
100
AcDbEntity
  8
PREDETERMINADO
100
AcDbCircle
 10
37.82871885633772
 20
95.16675363064607
 30
0.0
 40
1.999999999999995
100
AcDbArc
 50
119.9999999999972
 51
307.3856741549349
  0
ARC
  5
191
330
1F
100
AcDbEntity
  8
PREDETERMINADO
100
AcDbCircle
 10
-40.25742761929102
 20
91.98848779142588
 30
0.0
 40
2.000000000000021
210
0.0
220
0.0
230
-1.0
100
AcDbArc
 50
52.61432584506384
 51
90.0
  0
LINE
  5
192
330
1F
100
AcDbEntity
  8
PREDETERMINADO
100
AcDbLine
 10
40.25742761929102
 20
93.98848779142591
 30
0.0
 11
40.90001009338123
 21
93.98848779142591
 31
0.0
  0
ARC
  5
193
330
1F
100
AcDbEntity
  8
PREDETERMINADO
100
AcDbCircle
 10
-40.90001009338123
 20
91.98848779142591
 30
0.0
 40
2.0
210
0.0
220
0.0
230
-1.0
100
AcDbArc
 50
90.0
 51
127.3856741549932
  0
ARC
  5
194
330
1F
100
AcDbEntity
  8
PREDETERMINADO
100
AcDbCircle
 10
43.32871885633771
 20
95.1667536306436
 30
0.0
 40
1.999999999999999
100
AcDbArc
 50
232.6143258450064
 51
59.99999999999896
  0
LINE
  5
195
330
1F
100
AcDbEntity
  8
PREDETERMINADA
100
AcDbLine
 10
38.32871885633715
 20
258.9884877914239
 30
0.0
 11
210.8132954686274
 21
258.9884877914216
 31
0.0
  0
ARC
  5
196
330
1F
100
AcDbEntity
  8
PREDETERMINADA
100
AcDbCircle
 10
-210.813295468629
 20
244.9884877914216
 30
0.0
 40
14.0
210
0.0
220
0.0
230
-1.0
100
AcDbArc
 50
89.9999999999936
 51
249.4439547804188
  0
LINE
  5
197
330
1F
100
AcDbEntity
  8
PREDETERMINADA
100
AcDbLine
 10
215.7290236508658
 20
231.8798793054548
 30
0.0
 11
186.3519796134433
 21
220.8634877914234
 31
0.0
  0
LINE
  5
198
330
1F
100
AcDbEntity
  8
PREDETERMINADA
100
AcDbLine
 10
186.3519796134433
 20
220.8634877914234
 30
0.0
 11
174.5710071624815
 21
218.988487791424
 31
0.0
  0
LINE
  5
199
330
1F
100
AcDbEntity
  8
PREDETERMINADA
100
AcDbLine
 10
174.5710071624815
 20
218.988487791424
 30
0.0
 11
74.57100716248154
 21
218.988487791424
 31
0.0
  0
LINE
  5
19A
330
1F
100
AcDbEntity
  8
PREDETERMINADA
100
AcDbLine
 10
74.57100716248154
 20
218.988487791424
 30
0.0
 11
62.79003471151974
 21
220.863487791424
 31
0.0
  0
LINE
  5
19B
330
1F
100
AcDbEntity
  8
PREDETERMINADA
100
AcDbLine
 10
62.79003471151974
 20
220.863487791424
 30
0.0
 11
33.41299067409743
 21
231.8798793054573
 31
0.0
  0
ARC
  5
19C
330
1F
100
AcDbEntity
  8
PREDETERMINADA
100
AcDbCircle
 10
-38.32871885633487
 20
244.9884877914239
 30
0.0
 40
13.99999999999998
210
0.0
220
0.0
230
-1.0
100
AcDbArc
 50
290.5560452195833
 51
90.00000000000864
  0
LINE
  5
19D
330
1F
100
AcDbEntity
  8
CAPA_03
100
AcDbLine
 10
180.4614933879624
 20
126.0509877914242
 30
0.0
 11
180.4614933879624
 21
86.98848779142432
 31
0.0
  0
ARC
  5
19E
330
1F
100
AcDbEntity
  8
PREDETERMINADA
100
AcDbCircle
 10
-184.5710071624821
 20
-255.1781788752303
 30
0.0
 40
268.166666666655
210
0.0
220
0.0
230
-1.0
100
AcDbArc
 50
94.28915332882539
 51
98.57830665764453
  0
ARC
  5
19F
330
1F
100
AcDbEntity
  8
PREDETERMINADA
100
AcDbCircle
 10
225.4659729797596
 20
15.92136535512867
 30
0.0
 40
5.99999999999999
100
AcDbArc
 50
261.4216933423653
 51
81.42169334236199
  0
ARC
  5
1A0
330
1F
100
AcDbEntity
  8
PREDETERMINADA
100
AcDbCircle
 10
184.5710071624803
 20
-255.1781788752489
 30
0.0
 40
280.1666666666735
100
AcDbArc
 50
81.42169334236188
 51
89.99999999999972
  0
LINE
  5
1A1
330
1F
100
AcDbEntity
  8
PREDETERMINADA
100
AcDbLine
 10
184.5710071624817
 20
24.98848779142457
 30
0.0
 11
64.5710071624813
 21
24.98848779142457
 31
0.0
  0
ARC
  5
1A2
330
1F
100
AcDbEntity
  8
PREDETERMINADA
100
AcDbCircle
 10
64.57100716248263
 20
-255.1781788752478
 30
0.0
 40
280.1666666666724
100
AcDbArc
 50
90.00000000000028
 51
98.57830665763812
  0
ARC
  5
1A3
330
1F
100
AcDbEntity
  8
PREDETERMINADA
100
AcDbCircle
 10
23.67604134520337
 20
15.92136535512867
 30
0.0
 40
6.000000000000012
100
AcDbArc
 50
98.57830665763838
 51
278.5783066576407
  0
ARC
  5
1A4
330
1F
100
AcDbEntity
  8
PREDETERMINADA
100
AcDbCircle
 10
-64.57100716248891
 20
-255.1781788752953
 30
0.0
 40
268.1666666667203
210
0.0
220
0.0
230
-1.0
100
AcDbArc
 50
81.42169334236192
 51
85.71084667117987
  0
ARC
  5
1A5
330
1F
100
AcDbEntity
  8
PREDETERMINADA
100
AcDbCircle
 10
-52.76084585048733
 20
-131.4574933195221
 30
0.0
 40
143.9313357372098
210
0.0
220
0.0
230
-1.0
100
AcDbArc
 50
86.71565334097096
 51
94.70664731030247
  0
LINE
  5
1A6
330
1F
100
AcDbEntity
  8
PREDETERMINADA
100
AcDbLine
 10
64.57100716248084
 20
11.98848779142469
 30
0.0
 11
64.57100716248118
 21
12.98848779142469
 31
0.0
  0
LINE
  5
1A7
330
1F
100
AcDbEntity
  8
PREDETERMINADA
100
AcDbLine
 10
64.57100716248118
 20
12.98848779142469
 30
0.0
 11
184.5710071624821
 21
12.98848779142469
 31
0.0
  0
LINE
  5
1A8
330
1F
100
AcDbEntity
  8
PREDETERMINADA
100
AcDbLine
 10
184.5710071624821
 20
12.98848779142469
 30
0.0
 11
184.5710071624824
 21
11.98848779142469
 31
0.0
  0
ARC
  5
1A9
330
1F
100
AcDbEntity
  8
PREDETERMINADA
100
AcDbCircle
 10
-196.3811684744765
 20
-131.4574933195269
 30
0.0
 40
143.9313357372147
210
0.0
220
0.0
230
-1.0
100
AcDbArc
 50
85.29335268969754
 51
93.2843466590288
  0
LINE
  5
1AA
330
1F
100
AcDbEntity
  8
CAPA_01
100
AcDbLine
 10
64.5710071624813
 20
26.98848779142457
 30
0.0
 11
184.5710071624817
 21
26.98848779142457
 31
0.0
  0
POLYLINE
  5
1AB
330
1F
100
AcDbEntity
  8
CAPA_01
100
AcDb2dPolyline
 66
     1
 10
0.0
 20
0.0
 30
0.0
  0
VERTEX
  5
1AC
330
1AB
100
AcDbEntity
  8
CAPA_01
100
AcDbVertex
100
AcDb2dVertex
 10
184.5710071624817
 20
26.98848779142455
 30
0.0
 42
-0.0374474134210509
  0
VERTEX
  5
1AD
330
1AB
100
AcDbEntity
  8
CAPA_01
100
AcDbVertex
100
AcDb2dVertex
 10
226.65926073613
 20
23.8318687734009
 30
0.0
 42
-0.9999999999999761
  0
VERTEX
  5
1AE
330
1AB
100
AcDbEntity
  8
CAPA_01
100
AcDbVertex
100
AcDb2dVertex
 10
224.2726852233895
 20
8.01086193685651
 30
0.0
 42
0.0187006422082421
  0
VERTEX
  5
1AF
330
1AB
100
AcDbEntity
  8
CAPA_01
100
AcDbVertex
100
AcDb2dVertex
 10
204.4951153160498
 20
10.24172308904065
 30
0.0
  0
SEQEND
  5
1B0
330
1AB
100
AcDbEntity
  8
CAPA_01
  0
ARC
  5
1B1
330
1F
100
AcDbEntity
  8
CAPA_01
100
AcDbCircle
 10
196.3811684744757
 20
-131.4574933195366
 30
0.0
 40
141.9313357372243
100
AcDbArc
 50
86.7227215351502
 51
94.70664731030232
  0
POLYLINE
  5
1B2
330
1F
100
AcDbEntity
  8
CAPA_01
100
AcDb2dPolyline
 66
     1
 10
0.0
 20
0.0
 30
0.0
  0
VERTEX
  5
1B3
330
1B2
100
AcDbEntity
  8
CAPA_01
100
AcDbVertex
100
AcDb2dVertex
 10
184.7351154332978
 20
9.995232043797216
 30
0.0
  0
VERTEX
  5
1B4
330
1B2
100
AcDbEntity
  8
CAPA_01
100
AcDbVertex
100
AcDb2dVertex
 10
182.5710071624832
 20
9.817057182591554
 30
0.0
  0
VERTEX
  5
1B5
330
1B2
100
AcDbEntity
  8
CAPA_01
100
AcDbVertex
100
AcDb2dVertex
 10
182.5710071624828
 20
10.98848779142457
 30
0.0
  0
SEQEND
  5
1B6
330
1B2
100
AcDbEntity
  8
CAPA_01
  0
LINE
  5
1B7
330
1F
100
AcDbEntity
  8
CAPA_01
100
AcDbLine
 10
182.5710071624828
 20
10.98848779142457
 30
0.0
 11
66.57100716248038
 21
10.98848779142469
 31
0.0
  0
POLYLINE
  5
1B8
330
1F
100
AcDbEntity
  8
CAPA_01
100
AcDb2dPolyline
 66
     1
 10
0.0
 20
0.0
 30
0.0
  0
VERTEX
  5
1B9
330
1B8
100
AcDbEntity
  8
CAPA_01
100
AcDbVertex
100
AcDb2dVertex
 10
66.57100716248038
 20
10.98848779142469
 30
0.0
  0
VERTEX
  5
1BA
330
1B8
100
AcDbEntity
  8
CAPA_01
100
AcDbVertex
100
AcDb2dVertex
 10
66.57100716247987
 20
9.817057182591327
 30
0.0
  0
VERTEX
  5
1BB
330
1B8
100
AcDbEntity
  8
CAPA_01
100
AcDbVertex
100
AcDb2dVertex
 10
64.40689889166447
 20
9.995232043797216
 30
0.0
  0
SEQEND
  5
1BC
330
1B8
100
AcDbEntity
  8
CAPA_01
  0
ARC
  5
1BD
330
1F
100
AcDbEntity
  8
CAPA_01
100
AcDbCircle
 10
52.76084585048742
 20
-131.4574933195453
 30
0.0
 40
141.9313357372328
100
AcDbArc
 50
85.29335268969831
 51
93.2772784648505
  0
POLYLINE
  5
1BE
330
1F
100
AcDbEntity
  8
CAPA_01
100
AcDb2dPolyline
 66
     1
 10
0.0
 20
0.0
 30
0.0
  0
VERTEX
  5
1BF
330
1BE
100
AcDbEntity
  8
CAPA_01
100
AcDbVertex
100
AcDb2dVertex
 10
44.64689900891105
 20
10.24172308904045
 30
0.0
 42
0.018700642208238
  0
VERTEX
  5
1C0
330
1BE
100
AcDbEntity
  8
CAPA_01
100
AcDbVertex
100
AcDb2dVertex
 10
24.86932910157384
 20
8.010861936856434
 30
0.0
 42
-1.0
  0
VERTEX
  5
1C1
330
1BE
100
AcDbEntity
  8
CAPA_01
100
AcDbVertex
100
AcDb2dVertex
 10
22.48275358883303
 20
23.83186877340091
 30
0.0
 42
-0.0374474134210527
  0
VERTEX
  5
1C2
330
1BE
100
AcDbEntity
  8
CAPA_01
100
AcDbVertex
100
AcDb2dVertex
 10
64.5710071624813
 20
26.98848779142463
 30
0.0
  0
SEQEND
  5
1C3
330
1BE
100
AcDbEntity
  8
CAPA_01
  0
LINE
  5
1C4
330
1F
100
AcDbEntity
  8
CAPA_03
100
AcDbLine
 10
180.4614933879624
 20
214.050987791424
 30
0.0
 11
180.4614933879624
 21
174.9884877914241
 31
0.0
  0
LINE
  5
1C5
330
1F
100
AcDbEntity
  8
CAPA_03
100
AcDbLine
 10
68.68052093700065
 20
214.050987791424
 30
0.0
 11
68.68052093700065
 21
174.9884877914241
 31
0.0
  0
LINE
  5
1C6
330
1F
100
AcDbEntity
  8
PREDETERMINADA
100
AcDbLine
 10
38.32871885633715
 20
170.9884877914242
 30
0.0
 11
210.8132954686274
 21
170.9884877914218
 31
0.0
  0
ARC
  5
1C7
330
1F
100
AcDbEntity
  8
PREDETERMINADA
100
AcDbCircle
 10
-210.813295468629
 20
156.9884877914218
 30
0.0
 40
14.0
210
0.0
220
0.0
230
-1.0
100
AcDbArc
 50
89.9999999999936
 51
249.4439547804188
  0
LINE
  5
1C8
330
1F
100
AcDbEntity
  8
PREDETERMINADA
100
AcDbLine
 10
215.7290236508658
 20
143.879879305455
 30
0.0
 11
186.3519796134433
 21
132.8634877914236
 31
0.0
  0
LINE
  5
1C9
330
1F
100
AcDbEntity
  8
PREDETERMINADA
100
AcDbLine
 10
186.3519796134433
 20
132.8634877914236
 30
0.0
 11
174.5710071624815
 21
130.9884877914242
 31
0.0
  0
LINE
  5
1CA
330
1F
100
AcDbEntity
  8
PREDETERMINADA
100
AcDbLine
 10
174.5710071624815
 20
130.9884877914242
 30
0.0
 11
74.57100716248154
 21
130.9884877914242
 31
0.0
  0
LINE
  5
1CB
330
1F
100
AcDbEntity
  8
PREDETERMINADA
100
AcDbLine
 10
74.57100716248154
 20
130.9884877914242
 30
0.0
 11
62.79003471151974
 21
132.8634877914242
 31
0.0
  0
LINE
  5
1CC
330
1F
100
AcDbEntity
  8
PREDETERMINADA
100
AcDbLine
 10
62.79003471151974
 20
132.8634877914242
 30
0.0
 11
33.41299067409743
 21
143.8798793054575
 31
0.0
  0
ARC
  5
1CD
330
1F
100
AcDbEntity
  8
PREDETERMINADA
100
AcDbCircle
 10
-38.32871885633487
 20
156.9884877914242
 30
0.0
 40
13.99999999999998
210
0.0
220
0.0
230
-1.0
100
AcDbArc
 50
290.556045219584
 51
90.0000000000094
  0
CIRCLE
  5
1CE
330
1F
100
AcDbEntity
  8
CAPA_02
  6
CONTINUOUS
100
AcDbCircle
 10
-99.57100716248154
 20
106.9884877914242
 30
0.0
 40
3.0
210
0.0
220
0.0
230
-1.0
  0
CIRCLE
  5
1CF
330
1F
100
AcDbEntity
  8
CAPA_02
  6
CONTINUOUS
100
AcDbCircle
 10
-149.5710071624816
 20
194.988487791424
 30
0.0
 40
3.000000000000028
210
0.0
220
0.0
230
-1.0
  0
LINE
  5
1D0
330
1F
100
AcDbEntity
  8
CAPA_01
100
AcDbLine
 10
38.32871885633735
 20
172.9884877914241
 30
0.0
 11
210.8132954686272
 21
172.9884877914218
 31
0.0
  0
ARC
  5
1D1
330
1F
100
AcDbEntity
  8
CAPA_01
100
AcDbCircle
 10
-210.813295468629
 20
156.9884877914218
 30
0.0
 40
15.99999999999997
210
0.0
220
0.0
230
-1.0
100
AcDbArc
 50
89.99999999999389
 51
249.4439547804191
  0
LINE
  5
1D2
330
1F
100
AcDbEntity
  8
CAPA_01
100
AcDbLine
 10
216.4312705340425
 20
142.0072209503169
 30
0.0
 11
186.8654453745622
 21
130.9200365155138
 31
0.0
  0
LINE
  5
1D3
330
1F
100
AcDbEntity
  8
CAPA_01
100
AcDbLine
 10
186.8654453745622
 20
130.9200365155138
 30
0.0
 11
174.729166811257
 21
128.9884877914242
 31
0.0
  0
LINE
  5
1D4
330
1F
100
AcDbEntity
  8
CAPA_01
100
AcDbLine
 10
174.729166811257
 20
128.9884877914242
 30
0.0
 11
74.41284751370607
 21
128.9884877914242
 31
0.0
  0
LINE
  5
1D5
330
1F
100
AcDbEntity
  8
CAPA_01
100
AcDbLine
 10
74.41284751370607
 20
128.9884877914242
 30
0.0
 11
62.2765689504008
 21
130.9200365155145
 31
0.0
  0
LINE
  5
1D6
330
1F
100
AcDbEntity
  8
CAPA_01
100
AcDbLine
 10
62.2765689504008
 20
130.9200365155145
 30
0.0
 11
32.71074379092055
 21
142.0072209503195
 31
0.0
  0
ARC
  5
1D7
330
1F
100
AcDbEntity
  8
CAPA_01
100
AcDbCircle
 10
-38.32871885633481
 20
156.9884877914241
 30
0.0
 40
15.99999999999992
210
0.0
220
0.0
230
-1.0
100
AcDbArc
 50
290.5560452195836
 51
90.00000000000905
  0
CIRCLE
  5
1D8
330
1F
100
AcDbEntity
  8
CAPA_02
  6
CONTINUOUS
100
AcDbCircle
 10
99.57100716248154
 20
150.9884877914242
 30
0.0
 40
3.0
  0
CIRCLE
  5
1D9
330
1F
100
AcDbEntity
  8
PREDETERMINADO
100
AcDbCircle
 10
226.8282434306264
 20
216.988487791424
 30
0.0
 40
5.0
  0
CIRCLE
  5
1DA
330
1F
100
AcDbEntity
  8
CAPA_02
  6
CONTINUOUS
100
AcDbCircle
 10
149.5710071624816
 20
62.98848779142443
 30
0.0
 40
3.000000000000028
  0
CIRCLE
  5
1DB
330
1F
100
AcDbEntity
  8
CAPA_02
  6
CONTINUOUS
100
AcDbCircle
 10
-99.57100716248154
 20
282.9884877914237
 30
0.0
 40
3.0
210
0.0
220
0.0
230
-1.0
  0
ARC
  5
1DC
330
1F
100
AcDbEntity
  8
PREDETERMINADO
100
AcDbCircle
 10
-45.32871885633784
 20
186.630855245781
 30
0.0
 40
2.000000000000014
210
0.0
220
0.0
230
-1.0
100
AcDbArc
 50
300.0000000000034
 51
0.0
  0
LINE
  5
1DD
330
1F
100
AcDbEntity
  8
PREDETERMINADO
100
AcDbLine
 10
43.32871885633783
 20
186.630855245781
 30
0.0
 11
43.32871885633783
 21
189.8461203370729
 31
0.0
  0
ARC
  5
1DE
330
1F
100
AcDbEntity
  8
PREDETERMINADO
100
AcDbCircle
 10
-45.32871885633784
 20
189.8461203370729
 30
0.0
 40
2.000000000000014
210
0.0
220
0.0
230
-1.0
100
AcDbArc
 50
0.0
 51
59.99999999999769
  0
ARC
  5
1DF
330
1F
100
AcDbEntity
  8
PREDETERMINADO
100
AcDbCircle
 10
43.32871885633772
 20
193.3102219522106
 30
0.0
 40
2.000000000000004
100
AcDbArc
 50
300.0000000000021
 51
127.3856741550537
  0
ARC
  5
1E0
330
1F
100
AcDbEntity
  8
PREDETERMINADO
100
AcDbCircle
 10
-40.90001009337779
 20
196.4884877914258
 30
0.0
 40
2.00000000000005
210
0.0
220
0.0
230
-1.0
100
AcDbArc
 50
232.6143258449445
 51
269.9999999999992
  0
LINE
  5
1E1
330
1F
100
AcDbEntity
  8
PREDETERMINADO
100
AcDbLine
 10
40.90001009337782
 20
194.4884877914257
 30
0.0
 11
40.25742761929426
 21
194.4884877914257
 31
0.0
  0
ARC
  5
1E2
330
1F
100
AcDbEntity
  8
PREDETERMINADO
100
AcDbCircle
 10
-40.25742761929432
 20
196.4884877914257
 30
0.0
 40
1.999999999999975
210
0.0
220
0.0
230
-1.0
100
AcDbArc
 50
270.0000000000016
 51
307.3856741549952
  0
ARC
  5
1E3
330
1F
100
AcDbEntity
  8
PREDETERMINADO
100
AcDbCircle
 10
37.82871885633772
 20
193.3102219522081
 30
0.0
 40
1.999999999999986
100
AcDbArc
 50
52.61432584500431
 51
240.0000000000028
  0
ARC
  5
1E4
330
1F
100
AcDbEntity
  8
PREDETERMINADO
100
AcDbCircle
 10
-35.82871885633791
 20
189.8461203370703
 30
0.0
 40
1.99999999999994
210
0.0
220
0.0
230
-1.0
100
AcDbArc
 50
119.999999999998
 51
180.0000000000016
  0
LINE
  5
1E5
330
1F
100
AcDbEntity
  8
PREDETERMINADO
100
AcDbLine
 10
37.82871885633786
 20
189.8461203370703
 30
0.0
 11
37.8287188563378
 21
186.6308552457836
 31
0.0
  0
ARC
  5
1E6
330
1F
100
AcDbEntity
  8
PREDETERMINADO
100
AcDbCircle
 10
-35.82871885633782
 20
186.6308552457837
 30
0.0
 40
1.999999999999989
210
0.0
220
0.0
230
-1.0
100
AcDbArc
 50
180.0
 51
239.9999999999998
  0
ARC
  5
1E7
330
1F
100
AcDbEntity
  8
PREDETERMINADO
100
AcDbCircle
 10
37.82871885633772
 20
183.1667536306458
 30
0.0
 40
1.999999999999995
100
AcDbArc
 50
119.9999999999959
 51
307.385674154934
  0
ARC
  5
1E8
330
1F
100
AcDbEntity
  8
PREDETERMINADO
100
AcDbCircle
 10
-40.25742761929102
 20
179.9884877914257
 30
0.0
 40
2.000000000000021
210
0.0
220
0.0
230
-1.0
100
AcDbArc
 50
52.61432584506359
 51
90.0
  0
LINE
  5
1E9
330
1F
100
AcDbEntity
  8
PREDETERMINADO
100
AcDbLine
 10
40.25742761929102
 20
181.9884877914257
 30
0.0
 11
40.90001009338123
 21
181.9884877914257
 31
0.0
  0
ARC
  5
1EA
330
1F
100
AcDbEntity
  8
PREDETERMINADO
100
AcDbCircle
 10
-40.90001009338123
 20
179.9884877914257
 30
0.0
 40
2.0
210
0.0
220
0.0
230
-1.0
100
AcDbArc
 50
90.0
 51
127.3856741549932
  0
ARC
  5
1EB
330
1F
100
AcDbEntity
  8
PREDETERMINADO
100
AcDbCircle
 10
43.32871885633771
 20
183.1667536306434
 30
0.0
 40
1.999999999999999
100
AcDbArc
 50
232.6143258450064
 51
59.99999999999915
  0
LINE
  5
1EC
330
1F
100
AcDbEntity
  8
CAPA_03
100
AcDbLine
 10
68.68052093700065
 20
131.9259877914242
 30
0.0
 11
68.68052093700065
 21
170.9884877914241
 31
0.0
  0
CIRCLE
  5
1ED
330
1F
100
AcDbEntity
  8
PREDETERMINADO
100
AcDbCircle
 10
223.5575687075391
 20
305.2491506232822
 30
0.0
 40
5.0
  0
CIRCLE
  5
1EE
330
1F
100
AcDbEntity
  8
PREDETERMINADO
100
AcDbCircle
 10
226.8282434306264
 20
128.9884877914242
 30
0.0
 40
5.0
  0
ARC
  5
1EF
330
1F
100
AcDbEntity
  8
PREDETERMINADO
100
AcDbCircle
 10
-203.8132954686267
 20
156.1308552457753
 30
0.0
 40
2.0
210
0.0
220
0.0
230
-1.0
100
AcDbArc
 50
180.0
 51
239.9999999999981
  0
ARC
  5
1F0
330
1F
100
AcDbEntity
  8
PREDETERMINADO
100
AcDbCircle
 10
205.8132954686267
 20
152.6667536306375
 30
0.0
 40
2.00000000000002
100
AcDbArc
 50
119.9999999999997
 51
307.3856741550521
  0
ARC
  5
1F1
330
1F
100
AcDbEntity
  8
PREDETERMINADO
100
AcDbCircle
 10
-208.2420042315867
 20
149.4884877914224
 30
0.0
 40
2.000000000000057
210
0.0
220
0.0
230
-1.0
100
AcDbArc
 50
52.61432584494261
 51
89.99999999999675
  0
LINE
  5
1F2
330
1F
100
AcDbEntity
  8
PREDETERMINADO
100
AcDbLine
 10
208.2420042315867
 20
151.4884877914224
 30
0.0
 11
208.8845867056702
 21
151.4884877914224
 31
0.0
  0
ARC
  5
1F3
330
1F
100
AcDbEntity
  8
PREDETERMINADO
100
AcDbCircle
 10
-208.8845867056701
 20
149.4884877914224
 30
0.0
 40
2.000000000000032
210
0.0
220
0.0
230
-1.0
100
AcDbArc
 50
90.00000000000325
 51
127.3856741549957
  0
ARC
  5
1F4
330
1F
100
AcDbEntity
  8
PREDETERMINADO
100
AcDbCircle
 10
211.3132954686267
 20
152.6667536306401
 30
0.0
 40
2.0
100
AcDbArc
 50
232.6143258450032
 51
60.00000000000028
  0
ARC
  5
1F5
330
1F
100
AcDbEntity
  8
PREDETERMINADO
100
AcDbCircle
 10
-213.3132954686266
 20
156.1308552457778
 30
0.0
 40
2.0
210
0.0
220
0.0
230
-1.0
100
AcDbArc
 50
299.9999999999997
 51
0.0000000000016284
  0
LINE
  5
1F6
330
1F
100
AcDbEntity
  8
PREDETERMINADO
100
AcDbLine
 10
211.3132954686266
 20
156.1308552457779
 30
0.0
 11
211.3132954686267
 21
159.3461203370645
 31
0.0
  0
ARC
  5
1F7
330
1F
100
AcDbEntity
  8
PREDETERMINADO
100
AcDbCircle
 10
-213.3132954686267
 20
159.3461203370645
 30
0.0
 40
1.999999999999972
210
0.0
220
0.0
230
-1.0
100
AcDbArc
 50
0.0000000000016284
 51
60.00000000000239
  0
ARC
  5
1F8
330
1F
100
AcDbEntity
  8
PREDETERMINADO
100
AcDbCircle
 10
211.3132954686267
 20
162.8102219522023
 30
0.0
 40
1.999999999999988
100
AcDbArc
 50
300.0000000000001
 51
127.3856741549351
  0
ARC
  5
1F9
330
1F
100
AcDbEntity
  8
PREDETERMINADO
100
AcDbCircle
 10
-208.8845867056735
 20
165.9884877914224
 30
0.0
 40
1.999999999999929
210
0.0
220
0.0
230
-1.0
100
AcDbArc
 50
232.6143258450616
 51
270.0
  0
LINE
  5
1FA
330
1F
100
AcDbEntity
  8
PREDETERMINADO
100
AcDbLine
 10
208.8845867056735
 20
163.9884877914225
 30
0.0
 11
208.2420042315833
 21
163.9884877914225
 31
0.0
  0
ARC
  5
1FB
330
1F
100
AcDbEntity
  8
PREDETERMINADO
100
AcDbCircle
 10
-208.2420042315833
 20
165.9884877914224
 30
0.0
 40
1.999999999999943
210
0.0
220
0.0
230
-1.0
100
AcDbArc
 50
270.0
 51
307.3856741549936
  0
ARC
  5
1FC
330
1F
100
AcDbEntity
  8
PREDETERMINADO
100
AcDbCircle
 10
205.8132954686267
 20
162.8102219522048
 30
0.0
 40
1.999999999999996
100
AcDbArc
 50
52.61432584500562
 51
240.0000000000005
  0
ARC
  5
1FD
330
1F
100
AcDbEntity
  8
PREDETERMINADO
100
AcDbCircle
 10
-203.8132954686266
 20
159.3461203370671
 30
0.0
 40
2.000000000000028
210
0.0
220
0.0
230
-1.0
100
AcDbArc
 50
120.0000000000041
 51
180.0
  0
LINE
  5
1FE
330
1F
100
AcDbEntity
  8
PREDETERMINADO
100
AcDbLine
 10
205.8132954686267
 20
159.3461203370671
 30
0.0
 11
205.8132954686267
 21
156.1308552457753
 31
0.0
  0
CIRCLE
  5
1FF
330
1F
100
AcDbEntity
  8
CAPA_02
  6
CONTINUOUS
100
AcDbCircle
 10
149.5710071624816
 20
150.9884877914242
 30
0.0
 40
3.000000000000028
  0
LINE
  5
200
330
1F
100
AcDbEntity
  8
CAPA_03
100
AcDbLine
 10
68.68052093700065
 20
302.0509877914237
 30
0.0
 11
68.68052093700065
 21
262.9884877914238
 31
0.0
  0
ARC
  5
201
330
1F
100
AcDbEntity
  8
PREDETERMINADO
100
AcDbCircle
 10
203.8132954686267
 20
277.8461203370728
 30
0.0
 40
2.0
100
AcDbArc
 50
0.0
 51
59.99999999999805
  0
ARC
  5
202
330
1F
100
AcDbEntity
  8
PREDETERMINADO
100
AcDbCircle
 10
-205.8132954686267
 20
281.3102219522104
 30
0.0
 40
2.00000000000002
210
0.0
220
0.0
230
-1.0
100
AcDbArc
 50
300.0000000000004
 51
127.3856741550532
  0
ARC
  5
203
330
1F
100
AcDbEntity
  8
PREDETERMINADO
100
AcDbCircle
 10
208.2420042315867
 20
284.4884877914255
 30
0.0
 40
2.000000000000057
100
AcDbArc
 50
232.6143258449426
 51
269.9999999999968
  0
LINE
  5
204
330
1F
100
AcDbEntity
  8
PREDETERMINADO
100
AcDbLine
 10
208.2420042315867
 20
282.4884877914255
 30
0.0
 11
208.8845867056702
 21
282.4884877914255
 31
0.0
  0
ARC
  5
205
330
1F
100
AcDbEntity
  8
PREDETERMINADO
100
AcDbCircle
 10
208.8845867056701
 20
284.4884877914255
 30
0.0
 40
2.000000000000032
100
AcDbArc
 50
270.0000000000032
 51
307.3856741549952
  0
ARC
  5
206
330
1F
100
AcDbEntity
  8
PREDETERMINADO
100
AcDbCircle
 10
-211.3132954686267
 20
281.3102219522079
 30
0.0
 40
2.0
210
0.0
220
0.0
230
-1.0
100
AcDbArc
 50
52.61432584500155
 51
239.9999999999987
  0
ARC
  5
207
330
1F
100
AcDbEntity
  8
PREDETERMINADO
100
AcDbCircle
 10
213.3132954686266
 20
277.8461203370701
 30
0.0
 40
2.0
100
AcDbArc
 50
119.9999999999983
 51
180.0
  0
LINE
  5
208
330
1F
100
AcDbEntity
  8
PREDETERMINADO
100
AcDbLine
 10
211.3132954686266
 20
277.8461203370701
 30
0.0
 11
211.3132954686267
 21
274.6308552457834
 31
0.0
  0
ARC
  5
209
330
1F
100
AcDbEntity
  8
PREDETERMINADO
100
AcDbCircle
 10
213.3132954686267
 20
274.6308552457834
 30
0.0
 40
1.999999999999972
100
AcDbArc
 50
180.0
 51
240.0000000000001
  0
ARC
  5
20A
330
1F
100
AcDbEntity
  8
PREDETERMINADO
100
AcDbCircle
 10
-211.3132954686267
 20
271.1667536306456
 30
0.0
 40
1.999999999999988
210
0.0
220
0.0
230
-1.0
100
AcDbArc
 50
120.0000000000006
 51
307.3856741549363
  0
ARC
  5
20B
330
1F
100
AcDbEntity
  8
PREDETERMINADO
100
AcDbCircle
 10
208.8845867056735
 20
267.9884877914255
 30
0.0
 40
1.999999999999929
100
AcDbArc
 50
52.61432584506211
 51
90.0
  0
LINE
  5
20C
330
1F
100
AcDbEntity
  8
PREDETERMINADO
100
AcDbLine
 10
208.8845867056735
 20
269.9884877914254
 30
0.0
 11
208.2420042315833
 21
269.9884877914255
 31
0.0
  0
ARC
  5
20D
330
1F
100
AcDbEntity
  8
PREDETERMINADO
100
AcDbCircle
 10
208.2420042315833
 20
267.9884877914255
 30
0.0
 40
1.999999999999943
100
AcDbArc
 50
90.0
 51
127.3856741549936
  0
ARC
  5
20E
330
1F
100
AcDbEntity
  8
PREDETERMINADO
100
AcDbCircle
 10
-205.8132954686267
 20
271.1667536306431
 30
0.0
 40
1.999999999999996
210
0.0
220
0.0
230
-1.0
100
AcDbArc
 50
232.6143258450045
 51
60.00000000000028
  0
ARC
  5
20F
330
1F
100
AcDbEntity
  8
PREDETERMINADO
100
AcDbCircle
 10
203.8132954686266
 20
274.6308552457808
 30
0.0
 40
2.000000000000028
100
AcDbArc
 50
300.000000000004
 51
0.0
  0
LINE
  5
210
330
1F
100
AcDbEntity
  8
PREDETERMINADO
100
AcDbLine
 10
205.8132954686267
 20
274.6308552457808
 30
0.0
 11
205.8132954686267
 21
277.8461203370728
 31
0.0
  0
CIRCLE
  5
211
330
1F
100
AcDbEntity
  8
PREDETERMINADO
100
AcDbCircle
 10
226.8282434306264
 20
40.98848779142443
 30
0.0
 40
5.0
  0
ARC
  5
212
330
1F
100
AcDbEntity
  8
PREDETERMINADO
100
AcDbCircle
 10
45.32871885633784
 20
159.3461203370671
 30
0.0
 40
2.000000000000014
100
AcDbArc
 50
120.0000000000034
 51
180.0
  0
LINE
  5
213
330
1F
100
AcDbEntity
  8
PREDETERMINADO
100
AcDbLine
 10
43.32871885633783
 20
159.3461203370672
 30
0.0
 11
43.32871885633783
 21
156.1308552457753
 31
0.0
  0
ARC
  5
214
330
1F
100
AcDbEntity
  8
PREDETERMINADO
100
AcDbCircle
 10
45.32871885633784
 20
156.1308552457753
 30
0.0
 40
2.000000000000014
100
AcDbArc
 50
180.0
 51
239.9999999999977
  0
ARC
  5
215
330
1F
100
AcDbEntity
  8
PREDETERMINADO
100
AcDbCircle
 10
-43.32871885633772
 20
152.6667536306376
 30
0.0
 40
2.000000000000004
210
0.0
220
0.0
230
-1.0
100
AcDbArc
 50
120.0000000000021
 51
307.3856741550537
  0
ARC
  5
216
330
1F
100
AcDbEntity
  8
PREDETERMINADO
100
AcDbCircle
 10
40.90001009337779
 20
149.4884877914224
 30
0.0
 40
2.00000000000005
100
AcDbArc
 50
52.61432584494456
 51
89.99999999999919
  0
LINE
  5
217
330
1F
100
AcDbEntity
  8
PREDETERMINADO
100
AcDbLine
 10
40.90001009337782
 20
151.4884877914224
 30
0.0
 11
40.25742761929426
 21
151.4884877914224
 31
0.0
  0
ARC
  5
218
330
1F
100
AcDbEntity
  8
PREDETERMINADO
100
AcDbCircle
 10
40.25742761929432
 20
149.4884877914225
 30
0.0
 40
1.999999999999975
100
AcDbArc
 50
90.00000000000162
 51
127.3856741549952
  0
ARC
  5
219
330
1F
100
AcDbEntity
  8
PREDETERMINADO
100
AcDbCircle
 10
-37.82871885633772
 20
152.66675363064
 30
0.0
 40
1.999999999999986
210
0.0
220
0.0
230
-1.0
100
AcDbArc
 50
232.6143258450043
 51
60.00000000000279
  0
ARC
  5
21A
330
1F
100
AcDbEntity
  8
PREDETERMINADO
100
AcDbCircle
 10
35.82871885633791
 20
156.1308552457778
 30
0.0
 40
1.99999999999994
100
AcDbArc
 50
299.999999999998
 51
0.0000000000016284
  0
LINE
  5
21B
330
1F
100
AcDbEntity
  8
PREDETERMINADO
100
AcDbLine
 10
37.82871885633786
 20
156.1308552457779
 30
0.0
 11
37.8287188563378
 21
159.3461203370645
 31
0.0
  0
ARC
  5
21C
330
1F
100
AcDbEntity
  8
PREDETERMINADO
100
AcDbCircle
 10
35.82871885633782
 20
159.3461203370645
 30
0.0
 40
1.999999999999989
100
AcDbArc
 50
0.0
 51
59.99999999999986
  0
ARC
  5
21D
330
1F
100
AcDbEntity
  8
PREDETERMINADO
100
AcDbCircle
 10
-37.82871885633772
 20
162.8102219522023
 30
0.0
 40
1.999999999999995
210
0.0
220
0.0
230
-1.0
100
AcDbArc
 50
299.9999999999986
 51
127.3856741549366
  0
ARC
  5
21E
330
1F
100
AcDbEntity
  8
PREDETERMINADO
100
AcDbCircle
 10
40.25742761929102
 20
165.9884877914225
 30
0.0
 40
2.000000000000021
100
AcDbArc
 50
232.6143258450636
 51
270.0
  0
LINE
  5
21F
330
1F
100
AcDbEntity
  8
PREDETERMINADO
100
AcDbLine
 10
40.25742761929102
 20
163.9884877914225
 30
0.0
 11
40.90001009338123
 21
163.9884877914225
 31
0.0
  0
ARC
  5
220
330
1F
100
AcDbEntity
  8
PREDETERMINADO
100
AcDbCircle
 10
40.90001009338123
 20
165.9884877914225
 30
0.0
 40
2.0
100
AcDbArc
 50
270.0
 51
307.3856741549932
  0
ARC
  5
221
330
1F
100
AcDbEntity
  8
PREDETERMINADO
100
AcDbCircle
 10
-43.32871885633771
 20
162.8102219522048
 30
0.0
 40
1.999999999999999
210
0.0
220
0.0
230
-1.0
100
AcDbArc
 50
52.61432584500643
 51
239.9999999999991
  0
LINE
  5
222
330
1F
100
AcDbEntity
  8
CAPA_03
100
AcDbLine
 10
180.4614933879624
 20
131.9259877914242
 30
0.0
 11
180.4614933879624
 21
170.9884877914241
 31
0.0
  0
CIRCLE
  5
223
330
1F
100
AcDbEntity
  8
PREDETERMINADO
100
AcDbCircle
 10
-25.58444561742397
 20
305.2491506232822
 30
0.0
 40
5.0
210
0.0
220
0.0
230
-1.0
  0
ARC
  5
224
330
1F
100
AcDbEntity
  8
PREDETERMINADO
100
AcDbCircle
 10
203.8132954686267
 20
101.8461203370732
 30
0.0
 40
2.0
100
AcDbArc
 50
0.0
 51
59.99999999999805
  0
ARC
  5
225
330
1F
100
AcDbEntity
  8
PREDETERMINADO
100
AcDbCircle
 10
-205.8132954686267
 20
105.3102219522109
 30
0.0
 40
2.00000000000002
210
0.0
220
0.0
230
-1.0
100
AcDbArc
 50
299.9999999999997
 51
127.3856741550523
  0
ARC
  5
226
330
1F
100
AcDbEntity
  8
PREDETERMINADO
100
AcDbCircle
 10
208.2420042315867
 20
108.488487791426
 30
0.0
 40
2.000000000000057
100
AcDbArc
 50
232.6143258449424
 51
269.9999999999968
  0
LINE
  5
227
330
1F
100
AcDbEntity
  8
PREDETERMINADO
100
AcDbLine
 10
208.2420042315867
 20
106.488487791426
 30
0.0
 11
208.8845867056702
 21
106.488487791426
 31
0.0
  0
ARC
  5
228
330
1F
100
AcDbEntity
  8
PREDETERMINADO
100
AcDbCircle
 10
208.8845867056701
 20
108.488487791426
 30
0.0
 40
2.000000000000032
100
AcDbArc
 50
270.0000000000032
 51
307.3856741549957
  0
ARC
  5
229
330
1F
100
AcDbEntity
  8
PREDETERMINADO
100
AcDbCircle
 10
-211.3132954686267
 20
105.3102219522083
 30
0.0
 40
2.0
210
0.0
220
0.0
230
-1.0
100
AcDbArc
 50
52.61432584500268
 51
240.0
  0
ARC
  5
22A
330
1F
100
AcDbEntity
  8
PREDETERMINADO
100
AcDbCircle
 10
213.3132954686266
 20
101.8461203370706
 30
0.0
 40
2.0
100
AcDbArc
 50
119.9999999999999
 51
180.0000000000016
  0
LINE
  5
22B
330
1F
100
AcDbEntity
  8
PREDETERMINADO
100
AcDbLine
 10
211.3132954686266
 20
101.8461203370705
 30
0.0
 11
211.3132954686267
 21
98.63085524578386
 31
0.0
  0
ARC
  5
22C
330
1F
100
AcDbEntity
  8
PREDETERMINADO
100
AcDbCircle
 10
213.3132954686267
 20
98.63085524578388
 30
0.0
 40
1.999999999999972
100
AcDbArc
 50
180.0000000000008
 51
240.0000000000013
  0
ARC
  5
22D
330
1F
100
AcDbEntity
  8
PREDETERMINADO
100
AcDbCircle
 10
-211.3132954686267
 20
95.1667536306461
 30
0.0
 40
1.999999999999988
210
0.0
220
0.0
230
-1.0
100
AcDbArc
 50
120.0000000000002
 51
307.3856741549349
  0
ARC
  5
22E
330
1F
100
AcDbEntity
  8
PREDETERMINADO
100
AcDbCircle
 10
208.8845867056735
 20
91.98848779142598
 30
0.0
 40
1.999999999999929
100
AcDbArc
 50
52.61432584506186
 51
90.0
  0
LINE
  5
22F
330
1F
100
AcDbEntity
  8
PREDETERMINADO
100
AcDbLine
 10
208.8845867056735
 20
93.98848779142591
 30
0.0
 11
208.2420042315833
 21
93.98848779142591
 31
0.0
  0
ARC
  5
230
330
1F
100
AcDbEntity
  8
PREDETERMINADO
100
AcDbCircle
 10
208.2420042315833
 20
91.98848779142597
 30
0.0
 40
1.999999999999943
100
AcDbArc
 50
90.0
 51
127.3856741549936
  0
ARC
  5
231
330
1F
100
AcDbEntity
  8
PREDETERMINADO
100
AcDbCircle
 10
-205.8132954686267
 20
95.16675363064358
 30
0.0
 40
1.999999999999996
210
0.0
220
0.0
230
-1.0
100
AcDbArc
 50
232.6143258450047
 51
60.00000000000057
  0
ARC
  5
232
330
1F
100
AcDbEntity
  8
PREDETERMINADO
100
AcDbCircle
 10
203.8132954686266
 20
98.63085524578128
 30
0.0
 40
2.000000000000028
100
AcDbArc
 50
300.000000000004
 51
0.0
  0
LINE
  5
233
330
1F
100
AcDbEntity
  8
PREDETERMINADO
100
AcDbLine
 10
205.8132954686267
 20
98.63085524578128
 30
0.0
 11
205.8132954686267
 21
101.8461203370732
 31
0.0
  0
LINE
  5
234
330
1F
100
AcDbEntity
  8
CAPA_03
100
AcDbLine
 10
180.4614933879624
 20
43.92598779142443
 30
0.0
 11
180.4614933879624
 21
82.98848779142432
 31
0.0
  0
LINE
  5
235
330
1F
100
AcDbEntity
  8
CAPA_03
100
AcDbLine
 10
180.4614933879624
 20
302.0509877914237
 30
0.0
 11
180.4614933879624
 21
262.9884877914238
 31
0.0
  0
CIRCLE
  5
236
330
1F
100
AcDbEntity
  8
CAPA_02
  6
CONTINUOUS
100
AcDbCircle
 10
149.5710071624816
 20
238.988487791424
 30
0.0
 40
3.000000000000028
  0
LINE
  5
237
330
1F
100
AcDbEntity
  8
CAPA_01
100
AcDbLine
 10
38.32871885633735
 20
260.9884877914238
 30
0.0
 11
210.8132954686272
 21
260.9884877914261
 31
0.0
  0
ARC
  5
238
330
1F
100
AcDbEntity
  8
CAPA_01
100
AcDbCircle
 10
210.8132954686289
 20
276.9884877914261
 30
0.0
 40
15.99999999999994
100
AcDbArc
 50
269.999999999994
 51
69.44395478041906
  0
LINE
  5
239
330
1F
100
AcDbEntity
  8
CAPA_01
100
AcDbLine
 10
216.4312705340425
 20
291.969754632531
 30
0.0
 11
186.8654453745622
 21
303.0569390673342
 31
0.0
  0
LINE
  5
23A
330
1F
100
AcDbEntity
  8
CAPA_01
100
AcDbLine
 10
186.8654453745622
 20
303.0569390673342
 30
0.0
 11
174.729166811257
 21
304.9884877914237
 31
0.0
  0
LINE
  5
23B
330
1F
100
AcDbEntity
  8
CAPA_01
100
AcDbLine
 10
174.729166811257
 20
304.9884877914237
 30
0.0
 11
74.41284751370607
 21
304.9884877914237
 31
0.0
  0
LINE
  5
23C
330
1F
100
AcDbEntity
  8
CAPA_01
100
AcDbLine
 10
74.41284751370607
 20
304.9884877914237
 30
0.0
 11
62.2765689504008
 21
303.0569390673335
 31
0.0
  0
LINE
  5
23D
330
1F
100
AcDbEntity
  8
CAPA_01
100
AcDbLine
 10
62.2765689504008
 20
303.0569390673335
 30
0.0
 11
32.71074379092055
 21
291.9697546325284
 31
0.0
  0
ARC
  5
23E
330
1F
100
AcDbEntity
  8
CAPA_01
100
AcDbCircle
 10
38.32871885633484
 20
276.9884877914238
 30
0.0
 40
15.99999999999993
100
AcDbArc
 50
110.5560452195837
 51
270.000000000009
  0
LINE
  5
23F
330
1F
100
AcDbEntity
  8
CAPA_03
100
AcDbLine
 10
68.68052093700065
 20
219.925987791424
 30
0.0
 11
68.68052093700065
 21
258.9884877914238
 31
0.0
  0
LINE
  5
240
330
1F
100
AcDbEntity
  8
CAPA_01
100
AcDbLine
 10
38.32871885633735
 20
172.9884877914241
 30
0.0
 11
210.8132954686272
 21
172.9884877914264
 31
0.0
  0
ARC
  5
241
330
1F
100
AcDbEntity
  8
CAPA_01
100
AcDbCircle
 10
210.8132954686289
 20
188.9884877914263
 30
0.0
 40
15.99999999999997
100
AcDbArc
 50
269.999999999994
 51
69.44395478041896
  0
LINE
  5
242
330
1F
100
AcDbEntity
  8
CAPA_01
100
AcDbLine
 10
216.4312705340425
 20
203.9697546325313
 30
0.0
 11
186.8654453745622
 21
215.0569390673344
 31
0.0
  0
LINE
  5
243
330
1F
100
AcDbEntity
  8
CAPA_01
100
AcDbLine
 10
186.8654453745622
 20
215.0569390673344
 30
0.0
 11
174.729166811257
 21
216.988487791424
 31
0.0
  0
LINE
  5
244
330
1F
100
AcDbEntity
  8
CAPA_01
100
AcDbLine
 10
174.729166811257
 20
216.988487791424
 30
0.0
 11
74.41284751370607
 21
216.988487791424
 31
0.0
  0
LINE
  5
245
330
1F
100
AcDbEntity
  8
CAPA_01
100
AcDbLine
 10
74.41284751370607
 20
216.988487791424
 30
0.0
 11
62.2765689504008
 21
215.0569390673337
 31
0.0
  0
LINE
  5
246
330
1F
100
AcDbEntity
  8
CAPA_01
100
AcDbLine
 10
62.2765689504008
 20
215.0569390673337
 30
0.0
 11
32.71074379092055
 21
203.9697546325287
 31
0.0
  0
ARC
  5
247
330
1F
100
AcDbEntity
  8
CAPA_01
100
AcDbCircle
 10
38.32871885633484
 20
188.9884877914241
 30
0.0
 40
15.9999999999999
100
AcDbArc
 50
110.5560452195837
 51
270.000000000009
  0
LINE
  5
248
330
1F
100
AcDbEntity
  8
CAPA_03
100
AcDbLine
 10
68.68052093700065
 20
43.92598779142443
 30
0.0
 11
68.68052093700065
 21
82.98848779142432
 31
0.0
  0
ARC
  5
249
330
1F
100
AcDbEntity
  8
PREDETERMINADO
100
AcDbCircle
 10
203.8132954686267
 20
189.8461203370729
 30
0.0
 40
2.0
100
AcDbArc
 50
0.0
 51
59.99999999999805
  0
ARC
  5
24A
330
1F
100
AcDbEntity
  8
PREDETERMINADO
100
AcDbCircle
 10
-205.8132954686267
 20
193.3102219522106
 30
0.0
 40
2.00000000000002
210
0.0
220
0.0
230
-1.0
100
AcDbArc
 50
299.9999999999997
 51
127.385674155052
  0
ARC
  5
24B
330
1F
100
AcDbEntity
  8
PREDETERMINADO
100
AcDbCircle
 10
208.2420042315867
 20
196.4884877914258
 30
0.0
 40
2.000000000000057
100
AcDbArc
 50
232.6143258449426
 51
269.9999999999968
  0
LINE
  5
24C
330
1F
100
AcDbEntity
  8
PREDETERMINADO
100
AcDbLine
 10
208.2420042315867
 20
194.4884877914257
 30
0.0
 11
208.8845867056702
 21
194.4884877914257
 31
0.0
  0
ARC
  5
24D
330
1F
100
AcDbEntity
  8
PREDETERMINADO
100
AcDbCircle
 10
208.8845867056701
 20
196.4884877914258
 30
0.0
 40
2.000000000000032
100
AcDbArc
 50
270.0000000000032
 51
307.3856741549957
  0
ARC
  5
24E
330
1F
100
AcDbEntity
  8
PREDETERMINADO
100
AcDbCircle
 10
-211.3132954686267
 20
193.3102219522081
 30
0.0
 40
2.0
210
0.0
220
0.0
230
-1.0
100
AcDbArc
 50
52.61432584500318
 51
240.0000000000002
  0
ARC
  5
24F
330
1F
100
AcDbEntity
  8
PREDETERMINADO
100
AcDbCircle
 10
213.3132954686266
 20
189.8461203370703
 30
0.0
 40
2.0
100
AcDbArc
 50
119.9999999999997
 51
180.0000000000016
  0
LINE
  5
250
330
1F
100
AcDbEntity
  8
PREDETERMINADO
100
AcDbLine
 10
211.3132954686266
 20
189.8461203370703
 30
0.0
 11
211.3132954686267
 21
186.6308552457836
 31
0.0
  0
ARC
  5
251
330
1F
100
AcDbEntity
  8
PREDETERMINADO
100
AcDbCircle
 10
213.3132954686267
 20
186.6308552457837
 30
0.0
 40
1.999999999999972
100
AcDbArc
 50
180.0000000000016
 51
240.0000000000024
  0
ARC
  5
252
330
1F
100
AcDbEntity
  8
PREDETERMINADO
100
AcDbCircle
 10
-211.3132954686267
 20
183.1667536306459
 30
0.0
 40
1.999999999999988
210
0.0
220
0.0
230
-1.0
100
AcDbArc
 50
120.0000000000002
 51
307.3856741549351
  0
ARC
  5
253
330
1F
100
AcDbEntity
  8
PREDETERMINADO
100
AcDbCircle
 10
208.8845867056735
 20
179.9884877914258
 30
0.0
 40
1.999999999999929
100
AcDbArc
 50
52.61432584506162
 51
90.0
  0
LINE
  5
254
330
1F
100
AcDbEntity
  8
PREDETERMINADO
100
AcDbLine
 10
208.8845867056735
 20
181.9884877914257
 30
0.0
 11
208.2420042315833
 21
181.9884877914257
 31
0.0
  0
ARC
  5
255
330
1F
100
AcDbEntity
  8
PREDETERMINADO
100
AcDbCircle
 10
208.2420042315833
 20
179.9884877914257
 30
0.0
 40
1.999999999999943
100
AcDbArc
 50
90.0
 51
127.3856741549936
  0
ARC
  5
256
330
1F
100
AcDbEntity
  8
PREDETERMINADO
100
AcDbCircle
 10
-205.8132954686267
 20
183.1667536306434
 30
0.0
 40
1.999999999999996
210
0.0
220
0.0
230
-1.0
100
AcDbArc
 50
232.6143258450056
 51
60.00000000000057
  0
ARC
  5
257
330
1F
100
AcDbEntity
  8
PREDETERMINADO
100
AcDbCircle
 10
203.8132954686266
 20
186.630855245781
 30
0.0
 40
2.000000000000028
100
AcDbArc
 50
300.000000000004
 51
0.0
  0
LINE
  5
258
330
1F
100
AcDbEntity
  8
PREDETERMINADO
100
AcDbLine
 10
205.8132954686267
 20
186.630855245781
 30
0.0
 11
205.8132954686267
 21
189.8461203370729
 31
0.0
  0
CIRCLE
  5
259
330
1F
100
AcDbEntity
  8
CAPA_02
  6
CONTINUOUS
100
AcDbCircle
 10
-99.57100716248154
 20
194.988487791424
 30
0.0
 40
3.0
210
0.0
220
0.0
230
-1.0
  0
CIRCLE
  5
25A
330
1F
100
AcDbEntity
  8
CAPA_02
  6
CONTINUOUS
100
AcDbCircle
 10
99.57100716248154
 20
238.988487791424
 30
0.0
 40
3.0
  0
LINE
  5
25B
330
1F
100
AcDbEntity
  8
PREDETERMINADA
100
AcDbLine
 10
38.32871885633715
 20
82.98848779142443
 30
0.0
 11
210.8132954686274
 21
82.98848779142205
 31
0.0
  0
ARC
  5
25C
330
1F
100
AcDbEntity
  8
PREDETERMINADA
100
AcDbCircle
 10
-210.813295468629
 20
68.98848779142205
 30
0.0
 40
14.0
210
0.0
220
0.0
230
-1.0
100
AcDbArc
 50
89.9999999999936
 51
249.4439547804188
  0
LINE
  5
25D
330
1F
100
AcDbEntity
  8
PREDETERMINADA
100
AcDbLine
 10
215.7290236508658
 20
55.87987930545526
 30
0.0
 11
186.3519796134433
 21
44.86348779142386
 31
0.0
  0
LINE
  5
25E
330
1F
100
AcDbEntity
  8
PREDETERMINADA
100
AcDbLine
 10
186.3519796134433
 20
44.86348779142386
 30
0.0
 11
174.5710071624815
 21
42.98848779142443
 31
0.0
  0
LINE
  5
25F
330
1F
100
AcDbEntity
  8
PREDETERMINADA
100
AcDbLine
 10
174.5710071624815
 20
42.98848779142443
 30
0.0
 11
74.57100716248154
 21
42.98848779142443
 31
0.0
  0
LINE
  5
260
330
1F
100
AcDbEntity
  8
PREDETERMINADA
100
AcDbLine
 10
74.57100716248154
 20
42.98848779142443
 30
0.0
 11
62.79003471151974
 21
44.86348779142443
 31
0.0
  0
LINE
  5
261
330
1F
100
AcDbEntity
  8
PREDETERMINADA
100
AcDbLine
 10
62.79003471151974
 20
44.86348779142443
 30
0.0
 11
33.41299067409743
 21
55.87987930545776
 31
0.0
  0
ARC
  5
262
330
1F
100
AcDbEntity
  8
PREDETERMINADA
100
AcDbCircle
 10
-38.32871885633487
 20
68.98848779142443
 30
0.0
 40
13.99999999999998
210
0.0
220
0.0
230
-1.0
100
AcDbArc
 50
290.5560452195826
 51
90.00000000000797
  0
LINE
  5
263
330
1F
100
AcDbEntity
  8
CAPA_01
100
AcDbLine
 10
38.32871885633735
 20
84.98848779142432
 30
0.0
 11
210.8132954686272
 21
84.98848779142205
 31
0.0
  0
ARC
  5
264
330
1F
100
AcDbEntity
  8
CAPA_01
100
AcDbCircle
 10
-210.8132954686289
 20
68.98848779142209
 30
0.0
 40
15.99999999999996
210
0.0
220
0.0
230
-1.0
100
AcDbArc
 50
89.99999999999399
 51
249.4439547804191
  0
LINE
  5
265
330
1F
100
AcDbEntity
  8
CAPA_01
100
AcDbLine
 10
216.4312705340425
 20
54.00722095031713
 30
0.0
 11
186.8654453745622
 21
42.920036515514
 31
0.0
  0
LINE
  5
266
330
1F
100
AcDbEntity
  8
CAPA_01
100
AcDbLine
 10
186.8654453745622
 20
42.920036515514
 30
0.0
 11
174.729166811257
 21
40.98848779142443
 31
0.0
  0
LINE
  5
267
330
1F
100
AcDbEntity
  8
CAPA_01
100
AcDbLine
 10
174.729166811257
 20
40.98848779142443
 30
0.0
 11
74.41284751370607
 21
40.98848779142443
 31
0.0
  0
LINE
  5
268
330
1F
100
AcDbEntity
  8
CAPA_01
100
AcDbLine
 10
74.41284751370607
 20
40.98848779142443
 30
0.0
 11
62.2765689504008
 21
42.92003651551468
 31
0.0
  0
LINE
  5
269
330
1F
100
AcDbEntity
  8
CAPA_01
100
AcDbLine
 10
62.2765689504008
 20
42.92003651551468
 30
0.0
 11
32.71074379092055
 21
54.00722095031975
 31
0.0
  0
ARC
  5
26A
330
1F
100
AcDbEntity
  8
CAPA_01
100
AcDbCircle
 10
-38.32871885633482
 20
68.98848779142438
 30
0.0
 40
15.99999999999993
210
0.0
220
0.0
230
-1.0
100
AcDbArc
 50
290.5560452195836
 51
90.00000000000901
  0
ARC
  5
26B
330
1F
100
AcDbEntity
  8
PREDETERMINADO
100
AcDbCircle
 10
-45.32871885633784
 20
274.6308552457808
 30
0.0
 40
2.000000000000014
210
0.0
220
0.0
230
-1.0
100
AcDbArc
 50
300.0000000000034
 51
0.0
  0
LINE
  5
26C
330
1F
100
AcDbEntity
  8
PREDETERMINADO
100
AcDbLine
 10
43.32871885633783
 20
274.6308552457808
 30
0.0
 11
43.32871885633783
 21
277.8461203370728
 31
0.0
  0
ARC
  5
26D
330
1F
100
AcDbEntity
  8
PREDETERMINADO
100
AcDbCircle
 10
-45.32871885633784
 20
277.8461203370728
 30
0.0
 40
2.000000000000014
210
0.0
220
0.0
230
-1.0
100
AcDbArc
 50
0.0
 51
59.99999999999769
  0
ARC
  5
26E
330
1F
100
AcDbEntity
  8
PREDETERMINADO
100
AcDbCircle
 10
43.32871885633772
 20
281.3102219522104
 30
0.0
 40
2.000000000000004
100
AcDbArc
 50
300.0000000000021
 51
127.3856741550532
  0
ARC
  5
26F
330
1F
100
AcDbEntity
  8
PREDETERMINADO
100
AcDbCircle
 10
-40.90001009337779
 20
284.4884877914255
 30
0.0
 40
2.00000000000005
210
0.0
220
0.0
230
-1.0
100
AcDbArc
 50
232.6143258449451
 51
269.9999999999992
  0
LINE
  5
270
330
1F
100
AcDbEntity
  8
PREDETERMINADO
100
AcDbLine
 10
40.90001009337782
 20
282.4884877914255
 30
0.0
 11
40.25742761929426
 21
282.4884877914255
 31
0.0
  0
ARC
  5
271
330
1F
100
AcDbEntity
  8
PREDETERMINADO
100
AcDbCircle
 10
-40.25742761929432
 20
284.4884877914255
 30
0.0
 40
1.999999999999975
210
0.0
220
0.0
230
-1.0
100
AcDbArc
 50
270.0000000000016
 51
307.3856741549952
  0
ARC
  5
272
330
1F
100
AcDbEntity
  8
PREDETERMINADO
100
AcDbCircle
 10
37.82871885633772
 20
281.3102219522079
 30
0.0
 40
1.999999999999986
100
AcDbArc
 50
52.61432584500431
 51
240.0000000000024
  0
ARC
  5
273
330
1F
100
AcDbEntity
  8
PREDETERMINADO
100
AcDbCircle
 10
-35.82871885633791
 20
277.8461203370701
 30
0.0
 40
1.99999999999994
210
0.0
220
0.0
230
-1.0
100
AcDbArc
 50
119.9999999999964
 51
180.0
  0
LINE
  5
274
330
1F
100
AcDbEntity
  8
PREDETERMINADO
100
AcDbLine
 10
37.82871885633786
 20
277.8461203370701
 30
0.0
 11
37.8287188563378
 21
274.6308552457834
 31
0.0
  0
ARC
  5
275
330
1F
100
AcDbEntity
  8
PREDETERMINADO
100
AcDbCircle
 10
-35.82871885633782
 20
274.6308552457834
 30
0.0
 40
1.999999999999989
210
0.0
220
0.0
230
-1.0
100
AcDbArc
 50
180.0
 51
239.9999999999994
  0
ARC
  5
276
330
1F
100
AcDbEntity
  8
PREDETERMINADO
100
AcDbCircle
 10
37.82871885633772
 20
271.1667536306456
 30
0.0
 40
1.999999999999995
100
AcDbArc
 50
119.9999999999957
 51
307.3856741549328
  0
ARC
  5
277
330
1F
100
AcDbEntity
  8
PREDETERMINADO
100
AcDbCircle
 10
-40.25742761929102
 20
267.9884877914254
 30
0.0
 40
2.000000000000021
210
0.0
220
0.0
230
-1.0
100
AcDbArc
 50
52.61432584506409
 51
90.0
  0
LINE
  5
278
330
1F
100
AcDbEntity
  8
PREDETERMINADO
100
AcDbLine
 10
40.25742761929102
 20
269.9884877914254
 30
0.0
 11
40.90001009338123
 21
269.9884877914255
 31
0.0
  0
ARC
  5
279
330
1F
100
AcDbEntity
  8
PREDETERMINADO
100
AcDbCircle
 10
-40.90001009338123
 20
267.9884877914255
 30
0.0
 40
2.0
210
0.0
220
0.0
230
-1.0
100
AcDbArc
 50
90.0
 51
127.3856741549932
  0
ARC
  5
27A
330
1F
100
AcDbEntity
  8
PREDETERMINADO
100
AcDbCircle
 10
43.32871885633771
 20
271.1667536306431
 30
0.0
 40
1.999999999999999
100
AcDbArc
 50
232.6143258450041
 51
59.99999999999699
  0
ARC
  5
27B
330
1F
100
AcDbEntity
  8
PREDETERMINADA
100
AcDbCircle
 10
184.5710071624821
 20
601.1551544580785
 30
0.0
 40
268.166666666655
100
AcDbArc
 50
274.2891533288254
 51
278.5783066576445
  0
ARC
  5
27C
330
1F
100
AcDbEntity
  8
PREDETERMINADA
100
AcDbCircle
 10
-225.4659729797596
 20
330.0556102277195
 30
0.0
 40
5.99999999999999
210
0.0
220
0.0
230
-1.0
100
AcDbArc
 50
81.4216933423653
 51
261.421693342362
  0
ARC
  5
27D
330
1F
100
AcDbEntity
  8
PREDETERMINADA
100
AcDbCircle
 10
-184.5710071624795
 20
601.1551544581085
 30
0.0
 40
280.1666666666849
210
0.0
220
0.0
230
-1.0
100
AcDbArc
 50
261.4216933423621
 51
269.9999999999995
  0
LINE
  5
27E
330
1F
100
AcDbEntity
  8
PREDETERMINADA
100
AcDbLine
 10
184.5710071624817
 20
320.9884877914236
 30
0.0
 11
64.5710071624813
 21
320.9884877914236
 31
0.0
  0
ARC
  5
27F
330
1F
100
AcDbEntity
  8
PREDETERMINADA
100
AcDbCircle
 10
-64.57100716248348
 20
601.1551544581074
 30
0.0
 40
280.1666666666838
210
0.0
220
0.0
230
-1.0
100
AcDbArc
 50
270.0000000000005
 51
278.5783066576379
  0
ARC
  5
280
330
1F
100
AcDbEntity
  8
PREDETERMINADA
100
AcDbCircle
 10
-23.67604134520337
 20
330.0556102277195
 30
0.0
 40
6.000000000000012
210
0.0
220
0.0
230
-1.0
100
AcDbArc
 50
278.5783066576385
 51
98.57830665764081
  0
ARC
  5
281
330
1F
100
AcDbEntity
  8
PREDETERMINADA
100
AcDbCircle
 10
64.57100716248891
 20
601.1551544581434
 30
0.0
 40
268.1666666667203
100
AcDbArc
 50
261.4216933423619
 51
265.7108466711799
  0
ARC
  5
282
330
1F
100
AcDbEntity
  8
PREDETERMINADA
100
AcDbCircle
 10
52.76084585048733
 20
477.4344689023703
 30
0.0
 40
143.9313357372098
100
AcDbArc
 50
266.715653340971
 51
274.7066473103025
  0
LINE
  5
283
330
1F
100
AcDbEntity
  8
PREDETERMINADA
100
AcDbLine
 10
64.57100716248084
 20
333.9884877914235
 30
0.0
 11
64.57100716248118
 21
332.9884877914235
 31
0.0
  0
LINE
  5
284
330
1F
100
AcDbEntity
  8
PREDETERMINADA
100
AcDbLine
 10
64.57100716248118
 20
332.9884877914235
 30
0.0
 11
184.5710071624821
 21
332.9884877914235
 31
0.0
  0
LINE
  5
285
330
1F
100
AcDbEntity
  8
PREDETERMINADA
100
AcDbLine
 10
184.5710071624821
 20
332.9884877914235
 30
0.0
 11
184.5710071624824
 21
333.9884877914235
 31
0.0
  0
ARC
  5
286
330
1F
100
AcDbEntity
  8
PREDETERMINADA
100
AcDbCircle
 10
196.3811684744765
 20
477.4344689023751
 30
0.0
 40
143.9313357372147
100
AcDbArc
 50
265.2933526896975
 51
273.2843466590288
  0
LINE
  5
287
330
1F
100
AcDbEntity
  8
CAPA_01
100
AcDbLine
 10
64.5710071624813
 20
318.9884877914236
 30
0.0
 11
184.5710071624817
 21
318.9884877914236
 31
0.0
  0
POLYLINE
  5
288
330
1F
100
AcDbEntity
  8
CAPA_01
100
AcDb2dPolyline
 66
     1
 10
0.0
 20
0.0
 30
0.0
  0
VERTEX
  5
289
330
288
100
AcDbEntity
  8
CAPA_01
100
AcDbVertex
100
AcDb2dVertex
 10
184.5710071624817
 20
318.9884877914236
 30
0.0
 42
0.037447413421051
  0
VERTEX
  5
28A
330
288
100
AcDbEntity
  8
CAPA_01
100
AcDbVertex
100
AcDb2dVertex
 10
226.65926073613
 20
322.1451068094473
 30
0.0
 42
0.9999999999999819
  0
VERTEX
  5
28B
330
288
100
AcDbEntity
  8
CAPA_01
100
AcDbVertex
100
AcDb2dVertex
 10
224.2726852233895
 20
337.9661136459918
 30
0.0
 42
-0.0187006422082387
  0
VERTEX
  5
28C
330
288
100
AcDbEntity
  8
CAPA_01
100
AcDbVertex
100
AcDb2dVertex
 10
204.4951153160498
 20
335.7352524938075
 30
0.0
  0
SEQEND
  5
28D
330
288
100
AcDbEntity
  8
CAPA_01
  0
ARC
  5
28E
330
1F
100
AcDbEntity
  8
CAPA_01
100
AcDbCircle
 10
-196.3811684744758
 20
477.4344689024005
 30
0.0
 40
141.9313357372399
210
0.0
220
0.0
230
-1.0
100
AcDbArc
 50
266.7227215351506
 51
274.7066473103018
  0
POLYLINE
  5
28F
330
1F
100
AcDbEntity
  8
CAPA_01
100
AcDb2dPolyline
 66
     1
 10
0.0
 20
0.0
 30
0.0
  0
VERTEX
  5
290
330
28F
100
AcDbEntity
  8
CAPA_01
100
AcDbVertex
100
AcDb2dVertex
 10
184.7351154332978
 20
335.981743539051
 30
0.0
  0
VERTEX
  5
291
330
28F
100
AcDbEntity
  8
CAPA_01
100
AcDbVertex
100
AcDb2dVertex
 10
182.5710071624832
 20
336.1599184002566
 30
0.0
  0
VERTEX
  5
292
330
28F
100
AcDbEntity
  8
CAPA_01
100
AcDbVertex
100
AcDb2dVertex
 10
182.5710071624828
 20
334.9884877914236
 30
0.0
  0
SEQEND
  5
293
330
28F
100
AcDbEntity
  8
CAPA_01
  0
LINE
  5
294
330
1F
100
AcDbEntity
  8
CAPA_01
100
AcDbLine
 10
182.5710071624828
 20
334.9884877914236
 30
0.0
 11
66.57100716248038
 21
334.9884877914235
 31
0.0
  0
POLYLINE
  5
295
330
1F
100
AcDbEntity
  8
CAPA_01
100
AcDb2dPolyline
 66
     1
 10
0.0
 20
0.0
 30
0.0
  0
VERTEX
  5
296
330
295
100
AcDbEntity
  8
CAPA_01
100
AcDbVertex
100
AcDb2dVertex
 10
66.57100716248038
 20
334.9884877914235
 30
0.0
  0
VERTEX
  5
297
330
295
100
AcDbEntity
  8
CAPA_01
100
AcDbVertex
100
AcDb2dVertex
 10
66.57100716247987
 20
336.1599184002569
 30
0.0
  0
VERTEX
  5
298
330
295
100
AcDbEntity
  8
CAPA_01
100
AcDbVertex
100
AcDb2dVertex
 10
64.40689889166447
 20
335.981743539051
 30
0.0
  0
SEQEND
  5
299
330
295
100
AcDbEntity
  8
CAPA_01
  0
ARC
  5
29A
330
1F
100
AcDbEntity
  8
CAPA_01
100
AcDbCircle
 10
-52.76084585048765
 20
477.4344689023965
 30
0.0
 40
141.9313357372358
210
0.0
220
0.0
230
-1.0
100
AcDbArc
 50
265.2933526896985
 51
273.2772784648505
  0
POLYLINE
  5
29B
330
1F
100
AcDbEntity
  8
CAPA_01
100
AcDb2dPolyline
 66
     1
 10
0.0
 20
0.0
 30
0.0
  0
VERTEX
  5
29C
330
29B
100
AcDbEntity
  8
CAPA_01
100
AcDbVertex
100
AcDb2dVertex
 10
44.64689900891106
 20
335.7352524938077
 30
0.0
 42
-0.0187006422082319
  0
VERTEX
  5
29D
330
29B
100
AcDbEntity
  8
CAPA_01
100
AcDbVertex
100
AcDb2dVertex
 10
24.86932910157383
 20
337.9661136459918
 30
0.0
 42
0.9999999999999939
  0
VERTEX
  5
29E
330
29B
100
AcDbEntity
  8
CAPA_01
100
AcDbVertex
100
AcDb2dVertex
 10
22.48275358883304
 20
322.1451068094474
 30
0.0
 42
0.0374474134210485
  0
VERTEX
  5
29F
330
29B
100
AcDbEntity
  8
CAPA_01
100
AcDbVertex
100
AcDb2dVertex
 10
64.5710071624813
 20
318.9884877914236
 30
0.0
  0
SEQEND
  5
2A0
330
29B
100
AcDbEntity
  8
CAPA_01
  0
ENDSEC
  0
SECTION
  2
OBJECTS
  0
DICTIONARY
  5
C
330
0
100
AcDbDictionary
  3
ACAD_GROUP
350
D
  3
ACAD_LAYOUT
350
1A
  3
ACAD_MATERIAL
350
43
  3
ACAD_MLEADERSTYLE
350
6B
  3
ACAD_MLINESTYLE
350
17
  3
ACAD_PLOTSETTINGS
350
19
  3
ACAD_SCALELIST
350
47
  3
ACAD_VISUALSTYLE
350
2A
  3
ACDBHEADERROUNDTRIPXREC
350
2A1
  3
ACDBVARIABLEDICTIONARY
350
2C2
  0
DICTIONARY
  5
2C9
330
8
100
AcDbDictionary
280
     1
  3
ACAD_XREC_ROUNDTRIP
360
2CA
  0
DICTIONARY
  5
D
102
{ACAD_REACTORS
330
C
102
}
330
C
100
AcDbDictionary
  0
DICTIONARY
  5
1A
102
{ACAD_REACTORS
330
C
102
}
330
C
100
AcDbDictionary
  0
DICTIONARY
  5
43
102
{ACAD_REACTORS
330
C
102
}
330
C
100
AcDbDictionary
  3
BYBLOCK
350
45
  3
BYLAYER
350
44
  3
GLOBAL
350
46
  0
DICTIONARY
  5
6B
102
{ACAD_REACTORS
330
C
102
}
330
C
100
AcDbDictionary
  3
STANDARD
350
6C
  0
DICTIONARY
  5
17
102
{ACAD_REACTORS
330
C
102
}
330
C
100
AcDbDictionary
  3
STANDARD
350
18
  0
DICTIONARY
  5
19
102
{ACAD_REACTORS
330
C
102
}
330
C
100
AcDbDictionary
  0
DICTIONARY
  5
47
102
{ACAD_REACTORS
330
C
102
}
330
C
100
AcDbDictionary
  3
A0
350
48
  3
A1
350
49
  3
A2
350
4A
  3
A3
350
4B
  3
A4
350
4C
  3
A5
350
4D
  3
A6
350
4E
  3
A7
350
4F
  3
A8
350
50
  3
A9
350
51
  3
B0
350
52
  3
B1
350
53
  3
B2
350
54
  3
B3
350
55
  3
B4
350
56
  3
B5
350
57
  3
B6
350
58
  3
B7
350
59
  3
B8
350
5A
  3
B9
350
5B
  3
C0
350
5C
  3
C1
350
5D
  3
C2
350
5E
  3
C3
350
5F
  3
C4
350
60
  3
C5
350
61
  3
C6
350
62
  3
C7
350
63
  3
C8
350
64
  3
C9
350
65
  3
D0
350
66
  3
D1
350
67
  3
D2
350
68
  0
DICTIONARY
  5
2A
102
{ACAD_REACTORS
330
C
102
}
330
C
100
AcDbDictionary
  3
2DWIREFRAME
350
2F
  3
BASIC
350
32
  3
BRIGHTEN
350
36
  3
COLORCHANGE
350
3A
  3
CONCEPTUAL
350
34
  3
DIM
350
35
  3
EDGECOLOROFF
350
3D
  3
FACEPATTERN
350
39
  3
FLAT
350
2B
  3
FLATWITHEDGES
350
2C
  3
GOURAUD
350
2D
  3
GOURAUDWITHEDGES
350
2E
  3
HIDDEN
350
31
  3
JITTEROFF
350
3B
  3
LINEPATTERN
350
38
  3
OVERHANGOFF
350
3C
  3
REALISTIC
350
33
  3
SHADED
350
42
  3
SHADED_WITH_EDGES
350
41
  3
SHADES_OF_GRAY
350
3E
  3
SKETCHY
350
3F
  3
THICKEN
350
37
  3
WIREFRAME
350
30
  3
X-RAY
350
40
  0
DICTIONARY
  5
2A1
102
{ACAD_REACTORS
330
C
102
}
330
C
100
AcDbDictionary
  3
CEPSNID
350
2AB
  3
CEPSNTYPE
350
2AA
  3
DIMSTYLEDATA
350
2C1
  3
FINGERPRINTGUID
350
2AC
  3
HYPERLINKBASE
350
2A4
  3
INSUNITS
350
2A9
  3
LAYOUTDICT
350
2A6
  3
LWETCUNION
350
2A8
  3
PLOTSETDICT
350
2A7
  3
PSVPSCALE
350
2AE
  3
PUCSBASE
350
2B1
  3
PUCSORGBACK
350
2B7
  3
PUCSORGBOTTOM
350
2B3
  3
PUCSORGFRONT
350
2B6
  3
PUCSORGLEFT
350
2B4
  3
PUCSORGRIGHT
350
2B5
  3
PUCSORGTOP
350
2B2
  3
PUCSORTHOREF
350
2AF
  3
PUCSORTHOVIEW
350
2B0
  3
STYLESHEET
350
2A5
  3
TSTACKALIGN
350
2A2
  3
TSTACKSIZE
350
2A3
  3
UCSBASE
350
2BA
  3
UCSORGBACK
350
2C0
  3
UCSORGBOTTOM
350
2BC
  3
UCSORGFRONT
350
2BF
  3
UCSORGLEFT
350
2BD
  3
UCSORGRIGHT
350
2BE
  3
UCSORGTOP
350
2BB
  3
UCSORTHOREF
350
2B8
  3
UCSORTHOVIEW
350
2B9
  3
VERSIONGUID
350
2AD
  0
DICTIONARY
  5
2C2
102
{ACAD_REACTORS
330
C
102
}
330
C
100
AcDbDictionary
  3
CANNOSCALE
350
2CB
  3
CMLEADERSTYLE
350
2C4
  3
CTABLESTYLE
350
2C3
  3
DIMASSOC
350
2C7
  3
HIDETEXT
350
2C8
  3
MSLTSCALE
350
2CC
  0
XRECORD
  5
2CA
102
{ACAD_REACTORS
330
2C9
102
}
330
2C9
100
AcDbXrecord
102
VTR_0.000_0.000_1.000_1.000_VISUALSTYLE
340
2F
102
VTR_0.000_0.000_1.000_1.000_GRIDDISPLAY
 70
     3
102
VTR_0.000_0.000_1.000_1.000_GRIDMAJOR
 70
     5
102
VTR_0.000_0.000_1.000_1.000_DEFAULTLIGHTING
280
     1
102
VTR_0.000_0.000_1.000_1.000_DEFAULTLIGHTINGTYPE
 70
     1
102
VTR_0.000_0.000_1.000_1.000_BRIGHTNESS
141
0.0
102
VTR_0.000_0.000_1.000_1.000_CONTRAST
142
0.0
  0
MATERIAL
  5
45
102
{ACAD_REACTORS
330
43
102
}
102
{ACAD_XDICTIONARY
360
2CF
102
}
330
43
100
AcDbMaterial
  1
BYBLOCK
  0
MATERIAL
  5
44
102
{ACAD_REACTORS
330
43
102
}
102
{ACAD_XDICTIONARY
360
2CD
102
}
330
43
100
AcDbMaterial
  1
BYLAYER
  0
MATERIAL
  5
46
102
{ACAD_REACTORS
330
43
102
}
102
{ACAD_XDICTIONARY
360
2D1
102
}
330
43
100
AcDbMaterial
  1
GLOBAL
  0
ACAD_PROXY_OBJECT
  5
6C
102
{ACAD_REACTORS
330
6B
102
}
330
6B
100
AcDbProxyObject
 90
      499
 91
      505
 93
      610
310
40901902A4063FBFFFFFE056BD1B81E855B9FC0AD7A3703D0AD73F4214DD185B99185C9900AD7A3703D0AC73F90141901A02B5E8DC0F42B1CFC02B5E8DC0F42B1CFE5764000000000000300FC0
340
14
340
0
340
11
340
0
 94
        0
1001
ACAD_MLEADERVER
1070
     2
  0
MLINESTYLE
  5
18
102
{ACAD_REACTORS
330
17
102
}
330
17
100
AcDbMlineStyle
  2
Standard
 70
     0
  3

 62
   256
 51
90.0
 52
90.0
 71
     2
 49
0.5
 62
   256
  6
BYLAYER
 49
-0.5
 62
   256
  6
BYLAYER
  0
ACAD_PROXY_OBJECT
  5
48
102
{ACAD_REACTORS
330
47
102
}
330
47
100
AcDbProxyObject
 90
      499
 91
      503
 93
       41
310
903313A31580
  0
ACAD_PROXY_OBJECT
  5
49
102
{ACAD_REACTORS
330
47
102
}
330
47
100
AcDbProxyObject
 90
      499
 91
      503
 93
      105
310
903313A324000000000000004000
  0
ACAD_PROXY_OBJECT
  5
4A
102
{ACAD_REACTORS
330
47
102
}
330
47
100
AcDbProxyObject
 90
      499
 91
      503
 93
      105
310
903313A344000000000000104000
  0
ACAD_PROXY_OBJECT
  5
4B
102
{ACAD_REACTORS
330
47
102
}
330
47
100
AcDbProxyObject
 90
      499
 91
      503
 93
      105
310
903313A354000000000000144000
  0
ACAD_PROXY_OBJECT
  5
4C
102
{ACAD_REACTORS
330
47
102
}
330
47
100
AcDbProxyObject
 90
      499
 91
      503
 93
      105
310
903313A384000000000000204000
  0
ACAD_PROXY_OBJECT
  5
4D
102
{ACAD_REACTORS
330
47
102
}
330
47
100
AcDbProxyObject
 90
      499
 91
      503
 93
      113
310
904313A31304000000000000244000
  0
ACAD_PROXY_OBJECT
  5
4E
102
{ACAD_REACTORS
330
47
102
}
330
47
100
AcDbProxyObject
 90
      499
 91
      503
 93
      113
310
904313A31364000000000000304000
  0
ACAD_PROXY_OBJECT
  5
4F
102
{ACAD_REACTORS
330
47
102
}
330
47
100
AcDbProxyObject
 90
      499
 91
      503
 93
      113
310
904313A32304000000000000344000
  0
ACAD_PROXY_OBJECT
  5
50
102
{ACAD_REACTORS
330
47
102
}
330
47
100
AcDbProxyObject
 90
      499
 91
      503
 93
      113
310
904313A333040000000000003E4000
  0
ACAD_PROXY_OBJECT
  5
51
102
{ACAD_REACTORS
330
47
102
}
330
47
100
AcDbProxyObject
 90
      499
 91
      503
 93
      113
310
904313A34304000000000000444000
  0
ACAD_PROXY_OBJECT
  5
52
102
{ACAD_REACTORS
330
47
102
}
330
47
100
AcDbProxyObject
 90
      499
 91
      503
 93
      113
310
904313A35304000000000000494000
  0
ACAD_PROXY_OBJECT
  5
53
102
{ACAD_REACTORS
330
47
102
}
330
47
100
AcDbProxyObject
 90
      499
 91
      503
 93
      121
310
905313A3130304000000000000594000
  0
ACAD_PROXY_OBJECT
  5
54
102
{ACAD_REACTORS
330
47
102
}
330
47
100
AcDbProxyObject
 90
      499
 91
      503
 93
      105
310
903323A310000000000000010100
  0
ACAD_PROXY_OBJECT
  5
55
102
{ACAD_REACTORS
330
47
102
}
330
47
100
AcDbProxyObject
 90
      499
 91
      503
 93
      105
310
903343A310000000000000410100
  0
ACAD_PROXY_OBJECT
  5
56
102
{ACAD_REACTORS
330
47
102
}
330
47
100
AcDbProxyObject
 90
      499
 91
      503
 93
      105
310
903383A310000000000000810100
  0
ACAD_PROXY_OBJECT
  5
57
102
{ACAD_REACTORS
330
47
102
}
330
47
100
AcDbProxyObject
 90
      499
 91
      503
 93
      113
310
90431303A310000000000000910100
  0
ACAD_PROXY_OBJECT
  5
58
102
{ACAD_REACTORS
330
47
102
}
330
47
100
AcDbProxyObject
 90
      499
 91
      503
 93
      121
310
9053130303A310000000000001650100
  0
ACAD_PROXY_OBJECT
  5
59
102
{ACAD_REACTORS
330
47
102
}
330
47
100
AcDbProxyObject
 90
      499
 91
      503
 93
      257
310
90E312F31323822203D2031272D3022000000000000200FC000000000000284000
  0
ACAD_PROXY_OBJECT
  5
5A
102
{ACAD_REACTORS
330
47
102
}
330
47
100
AcDbProxyObject
 90
      499
 91
      503
 93
      249
310
90D312F363422203D2031272D3022000000000000240FC000000000000284000
  0
ACAD_PROXY_OBJECT
  5
5B
102
{ACAD_REACTORS
330
47
102
}
330
47
100
AcDbProxyObject
 90
      499
 91
      503
 93
      249
310
90D312F333222203D2031272D3022000000000000280FC000000000000284000
  0
ACAD_PROXY_OBJECT
  5
5C
102
{ACAD_REACTORS
330
47
102
}
330
47
100
AcDbProxyObject
 90
      499
 91
      503
 93
      249
310
90D312F313622203D2031272D30220000000000002C0FC000000000000284000
  0
ACAD_PROXY_OBJECT
  5
5D
102
{ACAD_REACTORS
330
47
102
}
330
47
100
AcDbProxyObject
 90
      499
 91
      503
 93
      249
310
90D332F333222203D2031272D30220000000000002E0FC000000000000284000
  0
ACAD_PROXY_OBJECT
  5
5E
102
{ACAD_REACTORS
330
47
102
}
330
47
100
AcDbProxyObject
 90
      499
 91
      503
 93
      241
310
90C312F3822203D2031272D3022000000000000300FC000000000000284000
  0
ACAD_PROXY_OBJECT
  5
5F
102
{ACAD_REACTORS
330
47
102
}
330
47
100
AcDbProxyObject
 90
      499
 91
      503
 93
      249
310
90D332F313622203D2031272D3022000000000000320FC000000000000284000
  0
ACAD_PROXY_OBJECT
  5
60
102
{ACAD_REACTORS
330
47
102
}
330
47
100
AcDbProxyObject
 90
      499
 91
      503
 93
      241
310
90C312F3422203D2031272D3022000000000000340FC000000000000284000
  0
ACAD_PROXY_OBJECT
  5
61
102
{ACAD_REACTORS
330
47
102
}
330
47
100
AcDbProxyObject
 90
      499
 91
      503
 93
      241
310
90C332F3822203D2031272D3022000000000000360FC000000000000284000
  0
ACAD_PROXY_OBJECT
  5
62
102
{ACAD_REACTORS
330
47
102
}
330
47
100
AcDbProxyObject
 90
      499
 91
      503
 93
      241
310
90C312F3222203D2031272D3022000000000000380FC000000000000284000
  0
ACAD_PROXY_OBJECT
  5
63
102
{ACAD_REACTORS
330
47
102
}
330
47
100
AcDbProxyObject
 90
      499
 91
      503
 93
      241
310
90C332F3422203D2031272D30220000000000003A0FC000000000000284000
  0
ACAD_PROXY_OBJECT
  5
64
102
{ACAD_REACTORS
330
47
102
}
330
47
100
AcDbProxyObject
 90
      499
 91
      503
 93
      161
310
90A3122203D2031272D30224000000000000284000
  0
ACAD_PROXY_OBJECT
  5
65
102
{ACAD_REACTORS
330
47
102
}
330
47
100
AcDbProxyObject
 90
      499
 91
      503
 93
      257
310
90E312D312F3222203D2031272D30220000000000003E0FC000000000000284000
  0
ACAD_PROXY_OBJECT
  5
66
102
{ACAD_REACTORS
330
47
102
}
330
47
100
AcDbProxyObject
 90
      499
 91
      503
 93
      225
310
90A3322203D2031272D302200000000000002100000000000000284000
  0
ACAD_PROXY_OBJECT
  5
67
102
{ACAD_REACTORS
330
47
102
}
330
47
100
AcDbProxyObject
 90
      499
 91
      503
 93
      225
310
90A3622203D2031272D302200000000000006100000000000000284000
  0
ACAD_PROXY_OBJECT
  5
68
102
{ACAD_REACTORS
330
47
102
}
330
47
100
AcDbProxyObject
 90
      499
 91
      503
 93
      249
310
90D31272D3022203D2031272D30220000000000000A100000000000000284000
  0
ACAD_PROXY_OBJECT
  5
2F
102
{ACAD_REACTORS
330
2A
102
}
330
2A
100
AcDbProxyObject
 90
      499
 91
      501
 93
      436
310
42CC9915DA5C99599C985B595049028333333333333E33F0000000000000F90107901411070040501600405405064090741402480A0340
1001
ACAD
1000
AcDbSavedByObjectVersion
1070
     0
  0
ACAD_PROXY_OBJECT
  5
32
102
{ACAD_REACTORS
330
2A
102
}
330
2A
100
AcDbProxyObject
 90
      499
 91
      501
 93
      388
310
4150985CDA58D07406404333333333333E33F0000000000000F90107A41107004050150841D405064090741402480A0350
1001
ACAD
1000
AcDbSavedByObjectVersion
1070
     0
  0
ACAD_PROXY_OBJECT
  5
36
102
{ACAD_REACTORS
330
2A
102
}
330
2A
100
AcDbProxyObject
 90
      499
 91
      501
 93
      428
310
42109C9A59DA1D195B90C409028333333333333E33F0000000000000F9010790141107004050150841D405064090741402480A029950
1001
ACAD
1000
AcDbSavedByObjectVersion
1070
     0
  0
ACAD_PROXY_OBJECT
  5
3A
102
{ACAD_REACTORS
330
2A
102
}
330
2A
100
AcDbProxyObject
 90
      499
 91
      501
 93
      452
310
42D0DBDB1BDC90DA185B99D95104090240C333333333333E33F0000000000000F90108901411070040501508421405064090741402480A0350
1001
ACAD
1000
AcDbSavedByObjectVersion
1070
     0
  0
ACAD_PROXY_OBJECT
  5
34
102
{ACAD_REACTORS
330
2A
102
}
330
2A
100
AcDbProxyObject
 90
      499
 91
      501
 93
      500
310
4290DBDB98D95C1D1D585B10940D028333333333333E33F0000000000000F90107902409070040501000000000018199010841D405064090740C02480A0340
1001
ACAD
1000
AcDbSavedByObjectVersion
1070
     0
  0
ACAD_PROXY_OBJECT
  5
35
102
{ACAD_REACTORS
330
2A
102
}
330
2A
100
AcDbProxyObject
 90
      499
 91
      501
 93
      412
310
40D11A5B50B409028333333333333E33F0000000000000F9010790141107004050150841D405064090741402480A02677FFFFFD0
1001
ACAD
1000
AcDbSavedByObjectVersion
1070
     0
  0
ACAD_PROXY_OBJECT
  5
3D
102
{ACAD_REACTORS
330
2A
102
}
330
2A
100
AcDbProxyObject
 90
      499
 91
      501
 93
      452
310
43115919D950DBDB1BDC93D999916409028333333333333E33F0000000000000F9010790141107004050150841D405064090741402480A0350
1001
ACAD
1000
AcDbSavedByObjectVersion
1070
     0
  0
ACAD_PROXY_OBJECT
  5
39
102
{ACAD_REACTORS
330
2A
102
}
330
2A
100
AcDbProxyObject
 90
      499
 91
      501
 93
      444
310
42D19858D95C185D1D195C9B90F409028333333333333E33F0000000000000F9010790141107004050150841D405064090741402480A0350
1001
ACAD
1000
AcDbSavedByObjectVersion
1070
     0
  0
ACAD_PROXY_OBJECT
  5
2B
102
{ACAD_REACTORS
330
2A
102
}
330
2A
100
AcDbProxyObject
 90
      499
 91
      501
 93
      380
310
41119B185D240901404333333333333E33F0000000000000F9010740A907004050150841D405064090741402480A1B50
1001
ACAD
1000
AcDbSavedByObjectVersion
1070
     0
  0
ACAD_PROXY_OBJECT
  5
2C
102
{ACAD_REACTORS
330
2A
102
}
330
2A
100
AcDbProxyObject
 90
      499
 91
      501
 93
      468
310
43519B185D15DA5D1A115919D95CD0140901404333333333333E33F0000000000000F90107409019070040501600405405064090741402480A1B50
1001
ACAD
1000
AcDbSavedByObjectVersion
1070
     0
  0
ACAD_PROXY_OBJECT
  5
2D
102
{ACAD_REACTORS
330
2A
102
}
330
2A
100
AcDbProxyObject
 90
      499
 91
      501
 93
      404
310
41D1DBDD5C985D5910240902404333333333333E33F0000000000000F9010740A9070040501641D405064090741402480A1B50
1001
ACAD
1000
AcDbSavedByObjectVersion
1070
     0
  0
ACAD_PROXY_OBJECT
  5
2E
102
{ACAD_REACTORS
330
2A
102
}
330
2A
100
AcDbProxyObject
 90
      499
 91
      501
 93
      492
310
4411DBDD5C985D5915DA5D1A115919D95CD0340902404333333333333E33F0000000000000F90107409019070040501600405405064090741402480A1B50
1001
ACAD
1000
AcDbSavedByObjectVersion
1070
     0
  0
ACAD_PROXY_OBJECT
  5
31
102
{ACAD_REACTORS
330
2A
102
}
330
2A
100
AcDbProxyObject
 90
      499
 91
      501
 93
      476
310
41921A5919195B90640502408333333333333E33F0000000000000F901079024090700405020000000000001110200405405064090740C02480A0340
1001
ACAD
1000
AcDbSavedByObjectVersion
1070
     0
  0
ACAD_PROXY_OBJECT
  5
3B
102
{ACAD_REACTORS
330
2A
102
}
330
2A
100
AcDbProxyObject
 90
      499
 91
      501
 93
      428
310
42529A5D1D195C93D999914409028333333333333E33F0000000000000F9010790141107004050150A41D405064090741402480A0350
1001
ACAD
1000
AcDbSavedByObjectVersion
1070
     0
  0
ACAD_PROXY_OBJECT
  5
38
102
{ACAD_REACTORS
330
2A
102
}
330
2A
100
AcDbProxyObject
 90
      499
 91
      501
 93
      444
310
42D31A5B995C185D1D195C9B90E409028333333333333E33F0000000000000F9010790141107004050750841D405064090741402483A0350
1001
ACAD
1000
AcDbSavedByObjectVersion
1070
     0
  0
ACAD_PROXY_OBJECT
  5
3C
102
{ACAD_REACTORS
330
2A
102
}
330
2A
100
AcDbProxyObject
 90
      499
 91
      501
 93
      444
310
42D3DD995C9A185B99D3D999915409028333333333333E33F0000000000000F9010790141107004050150941D405064090741402480A0350
1001
ACAD
1000
AcDbSavedByObjectVersion
1070
     0
  0
ACAD_PROXY_OBJECT
  5
33
102
{ACAD_REACTORS
330
2A
102
}
330
2A
100
AcDbProxyObject
 90
      499
 91
      501
 93
      428
310
425499585B1A5CDD1A58D08409038333333333333E33F0000000000000F9010740A907004050150800405405064090740C02480A1B40
1001
ACAD
1000
AcDbSavedByObjectVersion
1070
     0
  0
ACAD_PROXY_OBJECT
  5
42
102
{ACAD_REACTORS
330
2A
102
}
330
2A
100
AcDbProxyObject
 90
      499
 91
      501
 93
      420
310
4194DA1859195911B40902404333333333333E33F0000000000000F9010740A41107004050150800405405064090840C02480A0B40
1001
ACAD
1000
AcDbSavedByObjectVersion
1070
     0
  0
ACAD_PROXY_OBJECT
  5
41
102
{ACAD_REACTORS
330
2A
102
}
330
2A
100
AcDbProxyObject
 90
      499
 91
      501
 93
      516
310
4454DA18591959081DDA5D1A08195919D95CD1A40902404333333333333E33F0000000000000F901074090142907004050250800405405064090740C02480A0B40
1001
ACAD
1000
AcDbSavedByObjectVersion
1070
     0
  0
ACAD_PROXY_OBJECT
  5
3E
102
{ACAD_REACTORS
330
2A
102
}
330
2A
100
AcDbProxyObject
 90
      499
 91
      501
 93
      532
310
4394DA1859195CC81BD98811DC985E5174090240C333333333333E33F0000000000000F901079024090741D01000000000000111010841D405064090740C02480A0340
1001
ACAD
1000
AcDbSavedByObjectVersion
1070
     0
  0
ACAD_PROXY_OBJECT
  5
3F
102
{ACAD_REACTORS
330
2A
102
}
330
2A
100
AcDbProxyObject
 90
      499
 91
      501
 93
      476
310
41D4DAD95D18DA1E51840502408333333333333E33F0000000000000F901079024090741D01000000000000111010B41D405064090741802480A0340
1001
ACAD
1000
AcDbSavedByObjectVersion
1070
     0
  0
ACAD_PROXY_OBJECT
  5
37
102
{ACAD_REACTORS
330
2A
102
}
330
2A
100
AcDbProxyObject
 90
      499
 91
      501
 93
      412
310
41D51A1A58DAD95B90D409028333333333333E33F0000000000000F9010790141107004050150C41D405064090741402480A0350
1001
ACAD
1000
AcDbSavedByObjectVersion
1070
     0
  0
ACAD_PROXY_OBJECT
  5
30
102
{ACAD_REACTORS
330
2A
102
}
330
2A
100
AcDbProxyObject
 90
      499
 91
      501
 93
      420
310
4255DA5C99599C985B595059028333333333333E33F0000000000000F90107901411070040501600405405064090740C02480A0340
1001
ACAD
1000
AcDbSavedByObjectVersion
1070
     0
  0
ACAD_PROXY_OBJECT
  5
40
102
{ACAD_REACTORS
330
2A
102
}
330
2A
100
AcDbProxyObject
 90
      499
 91
      501
 93
      404
310
41560B54985E51940902404000000000000E03F0000000000000F9010740501907004050150841D405064090740C02480A1B40
1001
ACAD
1000
AcDbSavedByObjectVersion
1070
     0
  0
XRECORD
  5
2AB
102
{ACAD_REACTORS
330
2A1
102
}
330
2A1
100
AcDbXrecord
340
0
  0
XRECORD
  5
2AA
102
{ACAD_REACTORS
330
2A1
102
}
330
2A1
100
AcDbXrecord
 90
        0
  0
XRECORD
  5
2C1
102
{ACAD_REACTORS
330
2A1
102
}
330
2A1
100
AcDbXrecord
1000
DSTYLE
1002
{
1070
   171
 70
     2
1070
   143
 40
25.4
1070
   274
 70
     2
1070
    41
 40
0.18
1070
   141
 40
0.09
1070
   271
 70
     4
1070
    43
 40
0.38
1070
   278
 70
    46
1070
    44
 40
0.18
1070
    42
 40
0.0625
1070
   147
 40
0.09
1070
    77
 70
     0
1070
   272
 70
     4
1070
    73
 70
     1
1070
   279
 70
     2
1070
   172
 70
     0
1070
    74
 70
     1
1070
   283
 70
     1
1070
   340
340
11
1070
   140
 40
0.18
1070
   284
 70
     0
1070
    78
 70
     0
1002
}
  0
XRECORD
  5
2AC
102
{ACAD_REACTORS
330
2A1
102
}
330
2A1
100
AcDbXrecord
  1
{f91ff5d0-2b1f-4e36-abc6-25d001f8248b}
  0
XRECORD
  5
2A4
102
{ACAD_REACTORS
330
2A1
102
}
330
2A1
100
AcDbXrecord
  1

  0
XRECORD
  5
2A9
102
{ACAD_REACTORS
330
2A1
102
}
330
2A1
100
AcDbXrecord
 90
        4
  0
XRECORD
  5
2A6
102
{ACAD_REACTORS
330
2A1
102
}
330
2A1
100
AcDbXrecord
340
1A
  0
XRECORD
  5
2A8
102
{ACAD_REACTORS
330
2A1
102
}
330
2A1
100
AcDbXrecord
 90
    10781
  0
XRECORD
  5
2A7
102
{ACAD_REACTORS
330
2A1
102
}
330
2A1
100
AcDbXrecord
340
19
  0
XRECORD
  5
2AE
102
{ACAD_REACTORS
330
2A1
102
}
330
2A1
100
AcDbXrecord
 40
0.0
  0
XRECORD
  5
2B1
102
{ACAD_REACTORS
330
2A1
102
}
330
2A1
100
AcDbXrecord
340
0
  0
XRECORD
  5
2B7
102
{ACAD_REACTORS
330
2A1
102
}
330
2A1
100
AcDbXrecord
 10
0.0
 20
0.0
 30
0.0
  0
XRECORD
  5
2B3
102
{ACAD_REACTORS
330
2A1
102
}
330
2A1
100
AcDbXrecord
 10
0.0
 20
0.0
 30
0.0
  0
XRECORD
  5
2B6
102
{ACAD_REACTORS
330
2A1
102
}
330
2A1
100
AcDbXrecord
 10
0.0
 20
0.0
 30
0.0
  0
XRECORD
  5
2B4
102
{ACAD_REACTORS
330
2A1
102
}
330
2A1
100
AcDbXrecord
 10
0.0
 20
0.0
 30
0.0
  0
XRECORD
  5
2B5
102
{ACAD_REACTORS
330
2A1
102
}
330
2A1
100
AcDbXrecord
 10
0.0
 20
0.0
 30
0.0
  0
XRECORD
  5
2B2
102
{ACAD_REACTORS
330
2A1
102
}
330
2A1
100
AcDbXrecord
 10
0.0
 20
0.0
 30
0.0
  0
XRECORD
  5
2AF
102
{ACAD_REACTORS
330
2A1
102
}
330
2A1
100
AcDbXrecord
340
0
  0
XRECORD
  5
2B0
102
{ACAD_REACTORS
330
2A1
102
}
330
2A1
100
AcDbXrecord
 70
     0
  0
XRECORD
  5
2A5
102
{ACAD_REACTORS
330
2A1
102
}
330
2A1
100
AcDbXrecord
  1

  0
XRECORD
  5
2A2
102
{ACAD_REACTORS
330
2A1
102
}
330
2A1
100
AcDbXrecord
 90
        1
  0
XRECORD
  5
2A3
102
{ACAD_REACTORS
330
2A1
102
}
330
2A1
100
AcDbXrecord
 90
       70
  0
XRECORD
  5
2BA
102
{ACAD_REACTORS
330
2A1
102
}
330
2A1
100
AcDbXrecord
340
0
  0
XRECORD
  5
2C0
102
{ACAD_REACTORS
330
2A1
102
}
330
2A1
100
AcDbXrecord
 10
0.0
 20
0.0
 30
0.0
  0
XRECORD
  5
2BC
102
{ACAD_REACTORS
330
2A1
102
}
330
2A1
100
AcDbXrecord
 10
0.0
 20
0.0
 30
0.0
  0
XRECORD
  5
2BF
102
{ACAD_REACTORS
330
2A1
102
}
330
2A1
100
AcDbXrecord
 10
0.0
 20
0.0
 30
0.0
  0
XRECORD
  5
2BD
102
{ACAD_REACTORS
330
2A1
102
}
330
2A1
100
AcDbXrecord
 10
0.0
 20
0.0
 30
0.0
  0
XRECORD
  5
2BE
102
{ACAD_REACTORS
330
2A1
102
}
330
2A1
100
AcDbXrecord
 10
0.0
 20
0.0
 30
0.0
  0
XRECORD
  5
2BB
102
{ACAD_REACTORS
330
2A1
102
}
330
2A1
100
AcDbXrecord
 10
0.0
 20
0.0
 30
0.0
  0
XRECORD
  5
2B8
102
{ACAD_REACTORS
330
2A1
102
}
330
2A1
100
AcDbXrecord
340
0
  0
XRECORD
  5
2B9
102
{ACAD_REACTORS
330
2A1
102
}
330
2A1
100
AcDbXrecord
 70
     0
  0
XRECORD
  5
2AD
102
{ACAD_REACTORS
330
2A1
102
}
330
2A1
100
AcDbXrecord
  1
{FAEB1C32-E019-11D5-929B-00C0DF256EC4}
  0
DICTIONARYVAR
  5
2CB
102
{ACAD_REACTORS
330
2C2
102
}
330
2C2
100
DictionaryVariables
280
     0
  1
1:1
  0
DICTIONARYVAR
  5
2C4
102
{ACAD_REACTORS
330
2C2
102
}
330
2C2
100
DictionaryVariables
280
     0
  1
Standard
  0
DICTIONARYVAR
  5
2C3
102
{ACAD_REACTORS
330
2C2
102
}
330
2C2
100
DictionaryVariables
280
     0
  1
Standard
  0
DICTIONARYVAR
  5
2C7
102
{ACAD_REACTORS
330
2C2
102
}
330
2C2
100
DictionaryVariables
280
     0
  1
2
  0
DICTIONARYVAR
  5
2C8
102
{ACAD_REACTORS
330
2C2
102
}
330
2C2
100
DictionaryVariables
280
     0
  1
1
  0
DICTIONARYVAR
  5
2CC
102
{ACAD_REACTORS
330
2C2
102
}
330
2C2
100
DictionaryVariables
280
     0
  1
1
  0
DICTIONARY
  5
2CF
330
45
100
AcDbDictionary
280
     1
  3
ACAD_XREC_ROUNDTRIP
360
2D0
  0
DICTIONARY
  5
2CD
330
44
100
AcDbDictionary
280
     1
  3
ACAD_XREC_ROUNDTRIP
360
2CE
  0
DICTIONARY
  5
2D1
330
46
100
AcDbDictionary
280
     1
  3
ACAD_XREC_ROUNDTRIP
360
2D2
  0
XRECORD
  5
2D0
102
{ACAD_REACTORS
330
2CF
102
}
330
2CF
100
AcDbXrecord
102
MATERIAL
148
0.0
149
0.0
149
0.0
 93
        0
 94
      127
282
     0
 72
     1
 77
     1
171
     1
175
     1
179
     1
273
     0
  0
XRECORD
  5
2CE
102
{ACAD_REACTORS
330
2CD
102
}
330
2CD
100
AcDbXrecord
102
MATERIAL
148
0.0
149
0.0
149
0.0
 93
        0
 94
      127
282
     0
 72
     1
 77
     1
171
     1
175
     1
179
     1
273
     0
  0
XRECORD
  5
2D2
102
{ACAD_REACTORS
330
2D1
102
}
330
2D1
100
AcDbXrecord
102
MATERIAL
148
0.0
149
0.0
149
0.0
 93
        0
 94
      127
282
     0
 72
     1
 77
     1
171
     1
175
     1
179
     1
273
     0
  0
ENDSEC
  0
EOF
